Oops, an error
Loading. Please wait.

Home tab

version 1
version 1

Whole song

Interactive

235 views 3 this week
no commentswrite comment
1 2 3 4 5
x 5
add to favorites
×
Save as Personal and add changes to this tab that will be seen only by you. Learn more ›
×
You can save this tab as Personal to edit and correct it or add notes. All changes will be seen only by you. Learn more »
launch autoscroll
font size
0
reset
how to read this tab
guitar tuner
edit
Autoscroll
slow
fast
+/-
esc
set tempo
stop
Michael C. Wilkes
Home: By The Smashing Pumpkins
07/25/2015
Transcribed from Zitadelle Spandau on 2007-06-05

Well this took a good seven years to figure out, due to how difficult it is to pick out 
guitar parts with all of the fuzz on Machina II, but I finally heard a live acoustic 
version of this song a few months ago and I was able to figure it out. Like most SP songs, 
it is tuned down a half step. Hope you enjoy!  

Intro:                                Repeat last 4 chords 4X before going into verse 1
e|--0---0---0---0---0---0---0---0-----0---0---0---0--| 
B|--3---3---0---0---3---0---0---0-----3---3---3---3--| 
G|--2---0---2---0---2---3---0---2-----2---2---0---2--| 
D|--0---4---4---2---0---4—--2---2-----0---0---4---2--| 
A|--0---2---4---2---4---5---2---0-----0--h4---2---0--| 
E|--0---0---2---0---0---3---0---0-----0---0---0---0--| 

Verse 1: X4 (Wander off through dead of night…)
e|--0---0---0---0--|
B|--3---3---3---3--| 
G|--2---2---0---2--| 
D|--0---0---4---2--| 
A|--0--h4---2---0--| 
E|--0---0---0---0--| 

Chorus: (As the Indian Summer of my remembrance…)
e|--3---0---0---0---0---0---0---3---0---0---0--|
B|--3---3---0---0---3---0---0---3---3---0---0--| 
G|--0---2---0---0---2---0---2---0---2---0---0--| 
D|--2---2---2---0---0---2---2---2---2---2---0--| 
A|--3---0---2---2---0---2---0---3---0---2---2--| 
E|--0---0---0---3---0---0---0---0---0---0---3--| 

Verse 2: X4 (Home,home,let the words spill from my mouth…)
e|--0---0---0---0--|
B|--3---3---3---3--| 
G|--2---2---0---2--| 
D|--0---0---4---2--| 
A|--0--h4---2---0--| 
E|--0---0---0---0--| 

Pre-Verse: Hold Dsus2 for 3 measures before transitioning to other chords
e|--0---0---0--|
B|--3---3---3--| 
G|--2---0---2--| 
D|--0---4---2--| 
A|--0—--2---0--| 
E|--0---0---0--| 

Verse 1: x4 (Crossroads outside of town…)
e|--0---0---0---0--|
B|--3---3---3---3--| 
G|--2---2---0---2--| 
D|--0---0---4---2--| 
A|--0--h4---2---0--| 
E|--0---0---0---0--| 

Chorus: (With an urgent wind upon my rolling heels…)
e|--3---0---0---0---0---0---0---3---0---0---0--|
B|--3---3---0---0---3---0---0---3---3---0---0--| 
G|--0---2---0---0---2---0---2---0---2---0---0--| 
D|--2---2---2---0---0---2---2---2---2---2---0--| 
A|--3---0---2---2---0---2---0---3---0---2---2--| 
E|--0---0---0---3---0---0---0---0---0---0---3--| 

Verse 2: X4 (Home, let the words spill from my mouth…)
e|--0---0---0---0--|
B|--3---3---3---3--| 
G|--2---2---0---2--| 
D|--0---0---4---2--| 
A|--0--h4---2---0--| 
E|--0---0---0---0--| 

Bridge: (Same as the first 8 chords of the into)
e|--0---0---0---0---0---0---0---0--| 
B|--3---3---0---0---3---0---0---0--| 
G|--2---0---2---0---2---3---0---2--| 
D|--0---4---4---2---0---4—--2---2--| 
A|--0---2---4---2---4---5---2---0--| 
E|--0---0---2---0---0---3---0---0--|

Bridge Continued: X4 (Wander off through dead of night…) 
e|--0---0---0---0--|
B|--3---3---3---3--| 
G|--2---2---0---2--| 
D|--0---0---4---2--| 
A|--0--h4---2---0--| 
E|--0---0---0---0--| 

Verse 3: x8 (Love is everything I want…)
e|--0---0---0---0--|
B|--3---3---3---3--| 
G|--2---2---0---2--| 
D|--0---0---4---2--| 
A|--0--h4---2---0--| 
E|--0---0---0---0--| 

End on:
e|--0--|
B|--3--| 
G|--2--| 
D|--0--| 
A|--0--| 
E|--0--| 

Side Note: the lyrics I have listed here are only meant to give a point of reference. 
They should not be followed in exact conjunction with the chords.

| / Slide up
| \ Slide down
| h hammer-on
| p pull-off
| ~ Vibrato
| + Harmonic
| x Mute note


            
            
Suggest correction
Creating personal tab
Creating personal tab
You can edit any tab online and save it as your Personal.

You can edit, replace or remove any tab part or add personal notes – all changes will be seen only by you.

Personal tabs can be accessed anytime from any device, even offline.
Learn more »
comments
print report bad tab
guest
You may want to rate the tab now too:
select rating
Wanna post a correction for this tab? Suggest correction