Oops, an error
Loading. Please wait.

Luna Tab

version 1
version 1

Whole song

Interactive

30,187 views 57 this week
5 commentsread comments
1 2 3 4 5
x 11
add to favorites
launch autoscroll
font size
0
reset
how to read this tab
guitar tuner
×
Best way to learn
"Luna"
Autoscroll
slow
fast
+/-
esc
set tempo
stop
"Luna" by Smashing Pumpkins

[Intro]
[Guitar 1  (3x)]
e|------------------------------|
B|------------------------------|
G|--6^---------4~---------------|
D|------------------------------|
A|------------------------------|
E|------------------------------|
                             
[Guitar 2]  (3x)
e|------------------------------|
B|--------5----------------5----|
G|--6-----6-------------6--6--0-|
D|--7-----7-------------0--0--0-|
A|--5-----5--5-7---7-7--7--7--0-|
E|--5-----5--5-0---0-0--0-------|

[Then Guitar 1 plays]
e|------------------------------|
B|--2~--------------------------|
G|------------------------------|
D|------------------------------|
A|------------------------------|
E|------------------------------|

[Then Guitar 2 plays]
e|------------------0--0--------|
B|--5-----------7---7--7--0-----|
G|--6-----6--6--6---6--6--6-----|
D|--7-----7--7--7---7--7--7-----|
A|--0-----0--0------------0-----|
E|------------------------------|

[RHYTHM]
[Guitar 1]  
e|------------------------------|-------------------------------|
B|------------------------------|-------------------------------|
G|--6^---------4~---------------|--6^---------4~----------------|
D|------------------------------|-------------------------------|
A|------------------------------|-------------------------------|
E|------------------------------|-------------------------------|
                              
[Guitar 2] 
e|------------------------------|-------------------------------|
B|--------5----------------5----|--------5----------------5-----|
G|--6-----6-------------6--6--0-|--6-----6-------------6--6--0--|
D|--7-----7-------------0--0--0-|--7-----7-------------0--0--0--|
A|--5-----5--5-7---7-7--7--7--0-|--5-----5--5-7---7-7--7--7--0--|
E|--5-----5--5-0---0-0--0-------|--5-----5--5-0---0-0--0--------|
 What moon songs                do you sing your baby?

[Guitar 1]  
e|------------------------------|-------------------------------|
B|------------------------------|-------------------------------|
G|--6^---------4~---------------|--2^---------------------------|
D|------------------------------|-------------------------------|
A|------------------------------|-------------------------------|
E|------------------------------|-------------------------------|

[Guitar 2]  
e|------------------------------|------------------0--0---------|
B|--------5----------------5----|--5-----------7---7--7--0------|
G|--6-----6-------------6--6--0-|--6-----6--6--6---6--6--6------|
D|--7-----7-------------0--0--0-|--7-----7--7--7---7--7--7------|
A|--5-----5--5-7---7-7--7--7--0-|--0-----0--0------------0------|
E|--5-----5--5-0---0-0--0-------|-------------------------------|
                                    
What sunshine do you bring?
[Guitar 1]  
e|------------------------------|-------------------------------|
B|------------------------------|-------------------------------|
G|--6^---------4~---------------|--6^---------4~----------------|
D|------------------------------|-------------------------------|
A|------------------------------|-------------------------------|
E|------------------------------|-------------------------------|
                              
[Guitar 2]  
e|------------------------------|-------------------------------|
B|--------5----------------5----|--------5----------------5-----|
G|--6-----6-------------6--6--0-|--6-----6-------------6--6--0--|
D|--7-----7-------------0--0--0-|--7-----7-------------0--0--0--|
A|--5-----5--5-7---7-7--7--7--0-|--5-----5--5-7---7-7--7--7--0--|
E|--5-----5--5-0---0-0--0-------|--5-----5--5-0---0-0--0--------|
 Who belongs                    who decides who's crazy?

 [Guitar 1]  
e|------------------------------|-------------------------------|
B|------------------------------|-------------------------------|
G|--6^---------4~---------------|--2^---------------------------|
D|------------------------------|-------------------------------|
A|------------------------------|-------------------------------|
E|------------------------------|-------------------------------|
                              
[Guitar 2]  
e|------------------------------|--0----------------------------|
B|--------5----------------5----|--0-----0---------0-----0------|
G|--6-----6-------------6--6--0-|--6-----6---------4-----4------|
D|--7-----7-------------0--0--0-|--7-----7---7--7--5-----5--5---|
A|--5-----5--5-7---7-7--7--7--0-|--0-----0---0--0--0-----0--0---|
E|--5-----5--5-0---0-0--0-------|-------------------------------|                                  
  Who rights wrongs where others cling?  I'll sing for you
 
 [Guitar 1]  
e|------------------------------|-------------------------------|
B|------------------------------|-------------------------------|
G|--------6^--------------------|-------------------------------|
D|----------------4-------------|-------------------------------|
A|------------------------------|-------------------------------|
E|------------------------------|-------------------------------|
                              
[Guitar 2]  
e|-------------0--0----0--------|--0----------------------------|
B|--2-----2----0--0----0--2--0--|--0-----0----------0----0------|
G|--4-----4----2--2----2--2--0--|--6-----6----------4----4------|
D|--4-----4----4--4----4--4--0--|--7-----7---7--7---5----5--5---|
A|--0-----0----5--5----5-----0--|--0-----0---0--0---0----0--0---|
E|------------------------------|-------------------------------| 
             If you want me to            I'll give to you

[Guitar 1]  
e|------------------------------|-------------------------------|
B|------------------------------|-------------------------------|
G|-------6^---------------------|-------------------------------|
D|-------------4~---------------|-------------------------------|
A|------------------------------|-------------------------------|
E|------------------------------|-------------------------------|

[Guitar 2]  
e|-------0--0--0---0---0--------|--2--2--2-------------3--------|
B|-2-----2--2--2---2---2---2----|--0--0--0---0--3------3--------|
G|-4-----4--4--4---4---4---4----|--2--2--2---0--0------0--------|
D|-4-----4--4--4---4---4---4----|--0--0--0---0--0------0---0----|
A|-0-----0--0--0---0---0--------|--2--2--2---2--2------2---2----|
E|------------------------------|------------3--3------3--------|                             
                   and it's a     chance I'll have to take

[Guitar 1]  
e|------------------------------|-------------------------------|
B|--------5^-----3---2--3---2~--|-------------------------------|
G|------------------------------|-------------------------------|
D|------------------------------|-------------------------------|
A|------------------------------|-------------------------------|
E|------------------------------|-------------------------------|
                              
[Guitar 2]
e|------------------------------|--2--2--2-------------3--------|
B|--0--0---0---0----0----0------|--0--0--0--0--3-------3--------|
G|--2--2---2---2----2----2---2--|--2--2--2--0--0-------0--------|
D|--2--2---2---2----2----2---2--|--0--0--0--0--0-------0---0----|
A|--0--0---0---0----0----0------|--2--2--2--2--2-------2---2----|
E|------------------------------|-----------3--3-------3--------|
                    and it's a     chance I'll have to break

[Guitar 1]  
e|------------------------------|-------------------------------|
B|------------------------------|-------------------------------|
G|------------------------------|-------------------------------|
D|-----------------------------|--------------------------------|
A|------------------------------|-------------------------------|
E|------------------------------|-------------------------------|
                             
[Guitar 2]  
e|------------------------------|-------------------------------|
B|--3---------------------------|-------------------------------|
G|--2---------------------------|--9^-----9--------9------------|
D|--0---------------------------|--0------0--------0------------|
A|--0---------------------------|--0-----------0----------------|
E|------------------------------|-------------------------------|
 
[Guitar 1]  
e|------------------------------|-------------------------------|
B|------------------------------|-------------------------------|
G|------------------------------|-------------------------------|
D|------------------------------|-------------------------------|
A|------------------------------|-------------------------------|
E|------------------------------|-------------------------------|
                              
[Guitar 2]  
e|------------------------------|-------------------------------|
B|------------------------------|-------------------------------|
G|------------------------------|--9^-----9---------9-----------|
D|------------------------------|--0------0---------0-----------|
A|------------------------------|--0-----------0----------------|
E|------------------------------|-------------------------------|
 
(Play this rhythm part again until you get to "I'll sing along" again, where
the fill looks like this)
[Guitar 1]  
e|------------------------------|-------------------------------|
B|------------------------------|--------2----------------------|
G|--------------------------2---|--4---------4--4~--------------|
D|--4^---4~---5--4---4--4-------|-------------------------------|
A|------------------------------|-------------------------------|
E|------------------------------|-------------------------------|
                              
[Guitar 1]  
e|------------------------------|-------------------------------|
B|--2h3p2-----2-3-2h3p2-----2-3-|-2h3p2----2--3--5~-------------|
G|---------4-------------4------|-------4-----------------------|
D|------------------------------|-------------------------------|
A|------------------------------|-------------------------------|
E|------------------------------|-------------------------------|
                              
(Then that twangy part becomes like this )                           
 [Guitar 2 (2x)]
e|------------------------------|
B|------------------------------|
G|--9^--9--------9--------------|
D|--0---0--0-----0---0----------|
A|--0---0-----0--0------0-------|
E|------------------------------|

[ENDING]
[Guitar 1]  
e|------------0---0-------------|------------0---0--------------|
B|--2^--------0------2----------|--2^--------0------2-----------|
G|------2--2-------------2---4--|------2--2-------------2---4---|
D|------------------------------|-------------------------------|
A|------------------------------|-------------------------------|
E|------------------------------|-------------------------------|
                              
[Guitar 2]  
e|------------------------------|-------------------------------|
B|------------------------------|-------------------------------|
G|--9----9--9-------------------|---9----9--9-------------------|
D|--0----0--0-------------------|---0----0--0-------------------|
A|--0----0--0----7--7-7--5--7---|---0----0--0----7--7-7---5--7--|
E|---------------0--0-0--0--0---|----------------0--0-0---0--0--|
  I'm in love with you           I'm in love with you
 
[Guitar 1]  
e|------------0---0-------------|------------------------------|
B|--2^--------0------2----------|------------------------------|
G|------2--2-------------2---4--|---2~-------------------------|
D|------------------------------|------------------------------|
A|------------------------------|------------------------------|
E|------------------------------|------------------------------|
                           
[Guitar 2]  
e|------------------------------|-------------------------------|
B|------------------------------|-----5--------5---5--5--5--5---|
G|--9----9--9-------------------|-----6--------6---6--6--6--6---|
D|--0----0--0-------------------|-----7--------7---7--7--7--7---|
A|--0----0--0----7--7-7--5--7---|-----0--------0---0--0--0--0---|
E|---------------0--0-0--0--0---|-------------------------------|
  I'm in love with you           and you
 
[Guitar 1]  
e|------------------------------|-------------------------------|
B|------------------------------|-----------------------------5-|
G|------------------------------|-------------------------------|
D|------------------------------|-------------------------------|
A|------------------------------|-------------------------------|
E|-----------------------------|--------------------------------|

[Guitar 2] 
e|------------------------------|--0---------------0----------12|
B|----------5--5--5----5--------|--0---------------0----------10|
G|--6-------6--6--6----6--------|--6---------7\9---9----------9-|
D|--7---7---7--7--7----7---7----|--7---7--7--9\11--11---------11|
A|--0---0---0--0--0----0---0----|--0---0--0--0-0---0----------0-|
E|------------------------------|-------------------------------|

************************************

| ~  Vibrato
| h  Hammer-on
| p  Pull-off
| \  Slide down

************************************
Suggest correction
comments
print report bad tab
5 comments total. Showing first comments.
0 reply
Saucy Chunks 10 Feb 23, 2004 07:00 PM

Excellent tab. Great job.

0 reply
08L1V10N 802 Nov 21, 2007 04:33 AM

incorrect

0 reply
08L1V10N 802 Nov 21, 2007 04:34 AM

not accurate

guest
You may want to rate the tab now too:
select rating
Wanna post a correction for this tab? Suggest correction