Oops, an error
Loading. Please wait.

Pennies tab

version 2
version 2

Whole song

Interactive

1,718 views 6 this week
no commentswrite comment
1 2 3 4 5
3 more votes to show rating
add to favorites
×
Save as Personal and add changes to this tab that will be seen only by you. Learn more ›
×
You can save this tab as Personal to edit and correct it or add notes. All changes will be seen only by you. Learn more »
launch autoscroll
font size
0
reset
how to read this tab
guitar tuner
edit
Autoscroll
slow
fast
+/-
esc
set tempo
stop
Pennies
by
Smashing Pumpkins

Tuning: Eb

Lyrics:

And I stumbled onto you
As you stumbled over me
And you say the fates were cruel
For throwing us together
I always loved you so
Especially when you'd go
All the world must know
All the world must know
That I loved you so 

It's a pity we're apart
It's a shame you broke my heart
But I've got a new girlfriend
She looks a lot like you dear
No-one could ever do dear
All the world must know
That I loved you so
Especially when you'd go
Especially when you'd go
Especially when you'd go
Away and leave me here
Go away and leave me alone
All the world must know

Pennies for sale
Pennies for sale
Pennies for sale
Pennies for sale

Tabs: 

|--------------------------------|
|---------3----------------6-----|
|-----0-----0-------0------------|
|---3---3-----3---1------5-------|
|-1-------------3------6------0--|
|--------------------------------| x8

|--------------------------------|
|--------------------------------|
|-10------------7-------8--------|
|-10------------7-------8--------|
|--8------------5-------6--------|
|--------------------------------| x2

|--------------------------------|
|---------3----------------6-----|
|-----0-----0-------0------------|
|---3---3-----3---1------5-------|
|-1-------------3------6------0--|
|--------------------------------| x2

|--------------------------------|
|--------------------------------|
|---------------5-------8--------|
|--5------------5-------8--------|
|--5------------3-------6--------|
|--3-----------------------------|

|--------------------------------|
|---------3----------------6-----|
|-----0-----0-------0------------|
|---3---3-----3---1------5-------|
|-1-------------3------6------0--|
|--------------------------------| x6

|--------------------------------|
|--------------------------------|
|-10------------7-------8--------|
|-10------------7-------8--------|
|--8------------5-------6--------|
|--------------------------------| x2

|--------------------------------|
|--------------------------------|
|---------------5-------8--------|
|--5------------5-------8--------|
|--5------------3-------6--------|
|--3-----------------------------| x2

|--------------------------------|
|--------------------------------|
|--3----5----8-------------------|
|--3----5----8-------------------|
|--1----3----6-------------------|
|--------------------------------| x4

|--------------------------------|
|--------------------------------|
|---------------5-------8--------|
|--5------------5-------8--------|
|--5------------3-------6--------|
|--3-----------------------------|

|--------------------------------|
|---------3----------------6-----|
|-----0-----0-------0------------|
|---3---3-----3---1------5-------|
|-1-------------3------6------0--|
|--------------------------------| x5

|--------------------------------|
|---------3------1---6---1~------|
|-----0-----0----0---8---0~------|
|---3---3-----3--1---5---3~------|
|-1--------------3---6---1~------|
|--------------------------------|

Probably not 100%. Good luck. Email: steveman1236@gmail.com

            
            
Suggest correction
Creating personal tab
Creating personal tab
You can edit any tab online and save it as your Personal.

You can edit, replace or remove any tab part or add personal notes – all changes will be seen only by you.

Personal tabs can be accessed anytime from any device, even offline.
Learn more »
Give kudos to tab author, rate the tab!
1 2 3 4 5
comments
print report bad tab
guest
You may want to rate the tab now too:
select rating
Wanna post a correction for this tab? Suggest correction