Oops, an error
Loading. Please wait.

Stumbleine tab

version 2
version 2

Whole song

Interactive

31,650 views 72 this week
1 commentread comment
1 2 3 4 5
x 29
add to favorites
×
Save as Personal and add changes to this tab that will be seen only by you. Learn more ›
×
You can save this tab as Personal to edit and correct it or add notes. All changes will be seen only by you. Learn more »
launch autoscroll
font size
0
reset
how to read this tab
guitar tuner
edit
Autoscroll
slow
fast
+/-
esc
set tempo
stop
From Mellon Collie And The Infinite Sadness. One of my favorites off the album.

Tuning: Eb Ab Db Gb Bb Eb


[Verse]
                                                                   
D#|--------------------------------------------------------------------|
A#|-7-------7-------8---------7----------------------------------------|
F#|-----0-----0---0------0--------0------------------------------------|
C#|---0---------0------0--------0---0------0-----0---------0-------0---|
G#|-9-----9---------10-----10-9----------9-----9-----9---9-------7-----|
D#|------------------------------------7-----7-----7---7-----0-5-----0-|(x3)


[Pre-Chorus]

D#|----------------------------------------------------|
A#|----------------------------------------------------|
F#|----------------------------------------------------|
C#|-----0-----0---------0-----0----------0------0------|
G#|---5-----5-----5---7-----7-----7---10-----10-----10-|
D#|-3-----3-----3---5-----5-----5---8------8------8----|

D#| -------------------------------------------------|
A#| -------------------------------------------------|
F#| -------------------------------------------------|
C#| -----0-----0---------0-----0---------0-----0-----|
G#| ---5-----5-----5---7-----7-----7---9-----9-----9-|
D#| -3-----3-----3---5-----5-----5---7-----7-----7---|


[Verse 2]
                                                                    
D#|--------------------------------------------------------------------|
A#|-7-------7-------8---------7----------------------------------------|
F#|-----0-----0---0------0--------0------------------------------------|
C#|---0---------0------0--------0---0------0-----0---------0-------0---|
G#|-9-----9---------10-----10-9----------9-----9-----9---9-------7-----|
D#|------------------------------------7-----7-----7---7-----0-5-----0-|(x3)


[Pre-Chorus 2]

D#|----------------------------------------------------|
A#|----------------------------------------------------|
F#|----------------------------------------------------|
C#|-----0-----0---------0-----0----------0------0------|
G#|---5-----5-----5---7-----7-----7---10-----10-----10-|
D#|-3-----3-----3---5-----5-----5---8------8------8----|

D#| -------------------------------------------------|
A#| -------------------------------------------------|
F#| -------------------------------------0-----0-----|
C#| -----0-----0---------0-----0---------------------|
G#| ---5-----5-----5---7-----7-----7---9-----9-----9-|
D#| -3-----3-----3---5-----5-----5---7-----7-----7---|


[Chorus]
(play the following x2)

                                  (x2)
D#|----------------------------------|------------------------------------|
A#|----------------------------------|------------------------------------|
F#|-------0-------0-------0-----0----|------0------0----------0-----0-----|
C#|----------------------------------|------------------------------------|
G#|----12-------7-------5-----5------|---10-----10-----10---5-----5-----5-|
D#|-10------0-5-----0-3-----3-----3/-|-8------8------8----3-----3-----3---|


[Verse 3]

D#|----------------------------------|
A#|----------------------------------|
F#|----------------------------------|
C#|------------------------------0---|
G#|----------------------------7-----|
D#|-/7-----------------------5-----0-|

                                                                    
D#|--------------------------------------------------------------------|
A#|-7-------7-------8---------7----------------------------------------|
F#|-----0-----0---0------0--------0------------------------------------|
C#|---0---------0------0--------0---0------0-----0---------0-------0---|
G#|-9-----9---------10-----10-9----------9-----9-----9---9-------7-----|
D#|------------------------------------7-----7-----7---7-----0-5-----0-|(x3)


[Pre-Chorus 3]

D#|----------------------------------------------------|
A#|----------------------------------------------------|
F#|-----0-----0---------0-----0----------0------0------|
C#|----------------------------------------------------|
G#|---5-----5-----5---7-----7-----7---10-----10-----10-|
D#|-3-----3-----3---5-----5-----5---8------8------8----|

D#| ---------------------------------|
A#| ---------------------------------|
F#| -----0-----0---------0-----0-----|
C#| ---------------------------------|
G#| ---5-----5-----5---7-----7-----7-|
D#| -3-----3-----3---5-----5-----5---|


[Chorus 2]
(play the following x2)

                                  (x2)
D#|----------------------------------|------------------------------------|
A#|----------------------------------|------------------------------------|
F#|-------0-------0-------0-----0----|------0------0----------0-----0-----|
C#|----------------------------------|------------------------------------|
G#|----12-------7-------5-----5------|---10-----10-----10---5-----5-----5-|
D#|-10------0-5-----0-3-----3-----3/-|-8------8------8----3-----3-----3---|


[Outro]

D#|---------------------------------|
A#|---------------------------------|
F#|-----0-----0---------0-------0---|
C#|---------------------------------|
G#|---9-----9-----9---9-------7-----|
D#|-7-----7-----7---7-----0-5-----0-|

 End on this
D#|----------------------------------------------------------------------|
A#|-7-------7-------8---------7------------------------------------0-----|
F#|-----0-----0---0------0--------0--------------------------------0-----|
C#|---0---------0------0--------0---0------0-----0---------0------(0)----|
G#|-9-----9---------10-----10-9----------9-----9-----9---9-------7-------|
D#|------------------------------------7-----7-----7---7-----0-5---------|


Cheers, hope it helps



************************************

| /    Slide up
| (n)  Ghost note

************************************
Suggest correction
Creating personal tab
Creating personal tab
You can edit any tab online and save it as your Personal.

You can edit, replace or remove any tab part or add personal notes – all changes will be seen only by you.

Personal tabs can be accessed anytime from any device, even offline.
Learn more »
comments
print report bad tab
1 comment total.
+4 reply
Cameronr303 10 Apr 05, 2010 05:45 PM

Awesome. Helped remind me how to play

guest
You may want to rate the tab now too:
select rating
Wanna post a correction for this tab? Suggest correction