Oops, an error
Loading. Please wait.

The Rose March intro tab

version 1
version 1

Intro

Whole song

Interactive

5,639 views 1 this week
7 commentsread comments
1 2 3 4 5
x 3
add to favorites
×
Save as Personal and add changes to this tab that will be seen only by you. Learn more ›
×
You can save this tab as Personal to edit and correct it or add notes. All changes will be seen only by you. Learn more »
launch autoscroll
font size
0
reset
how to read this tab
guitar tuner
edit
Autoscroll
slow
fast
+/-
esc
set tempo
stop
The Rose March Tab by Smashing Pumpkins, www.Ultimate-Guitar.Com

Smashing Pumpkins - The Rose March 

standard, capo 5

section A (4/4 time, all eighth notes):
e|--------------------------------------------|
B|--------------0-----------0-----------------|
G|----------0-----------0-----------0---------|
D|------2-----------4-------------------------|
A|------------------------------2-------------|
E|--------------------------------------------|

e|--------------------------------------------|
B|--------------------------------------------|
G|--------------0-----------0-------0---------|
D|----------2-----------0---------------------|
A|------0-----------3------------4--2---------| 4 is hit hammering down to 2
E|--------------------------------------------|  time the G string right then    
                                                it works

e|--------------------------------------------|
B|-----------------------3--------------------|
G|-------------0-------------0---0------------|
D|----------0------------------0--------------|
A|--------------------------------------------|
E|------2---------2---------------------------|


e|--------------------------------------------|
B|--------------------------------------------|
G|------2-------0----------  ---------0-------|
D|----------0-----------2-0----------(0)------|
A|------------------0-----------3-------------|
E|------4-------------------------------------|




e|--------------------------------------------|
B|--------------------------------------------|
G|------2-------0---------------0-------------|
D|----------0-----------2-0--pulling----------|
A|------------------0-----------3-------------|
E|------4-------------------------------------|


Please comment!
Suggest correction
Creating personal tab
Creating personal tab
You can edit any tab online and save it as your Personal.

You can edit, replace or remove any tab part or add personal notes – all changes will be seen only by you.

Personal tabs can be accessed anytime from any device, even offline.
Learn more »
Give kudos to tab author, rate the tab!
1 2 3 4 5
comments
print report bad tab
7 comments total. Showing first comments.
+1 reply
Teej212 90 Mar 05, 2008 12:47 PM

section A (4/4 time, all eighth notes):
e|--------------------------------------------|
B|--------------0-----------0-----------------|
G|----------0-----------0-----------0---------|
D|------2-----------4-------------------------|
A|------------------------------2-------------|
E|--------------------------------------------|

e|--------------------------------------|
B|--------------------------------------|
G|-------------0-----------0------------|
D|---------2-----------0----------0-----|
A|-----0-----------3--------------------|
E|-----------------------------2--------|

e|-----------------------|
B|-----------3-----------|
G|-------0------0----0---|
D|----0----0-------0-----|
A|-----------------------|
E|-0---------------------|

e|--------------------------------|
B|--------------------------------|
G|-------------0-----------0------|
D|----------0-----------0---------|
A|-------------------0---------3--|
E|------2-------------------------|

i think it goes like this

-1 reply
rincewind 70 Mar 09, 2008 01:46 AM

Actually none of the rose march tabs I've seen are correct. First of all it isn't in standard tuning, but 1/2 down (Eb) and then put a capo on 5th fret cause that's what the pumpkins are doing. Or put the capo on 6th fret tuned standard.. Secondly it starts off like this

e|--------------------------------------------|
B|--------------3-----------3-----------------|
G|----------0-----------0-----------0---------|
D|------2-----------4-----------0-------------|
A|--------------------------------------------|
E|--------------------------------------------|

0 reply
c.koch78 10 Mar 10, 2008 06:25 AM

This is for dropped D not standard!. The last note (G) in the first paragraph must be a B. Also forget the complete last paragraph AND its played on the 6th fret then everything is correct.
The tab posted by rincewind is wrong it is B (0) not D played on the b string
The tuning is up to each one of us but the rest of the song is very probably played with standard and STandard works fine.

guest
Wanna post a correction for this tab? Suggest correction