Oops, an error
Loading. Please wait.

The Rose March tab

version 1
version 1

Whole song

Interactive

16,639 views 3 this week
9 commentsread comments
1 2 3 4 5
x 3
add to favorites
×
Save as Personal and add changes to this tab that will be seen only by you. Learn more ›
×
You can save this tab as Personal to edit and correct it or add notes. All changes will be seen only by you. Learn more »
launch autoscroll
font size
0
reset
how to read this tab
guitar tuner
edit
Autoscroll
slow
fast
+/-
esc
set tempo
stop
Smashing Pumpkins - The Rose March (after 7/31/07 version) 

standard, capo 5

section A (4/4 time, all eighth notes):
e|--------------------------------------------|
B|--------------3-----------3-----------------|
G|----------0-----------0-----------0---------|
D|------4-----------2-----------0-------------|
A|--------------------------------------------|
E|--------------------------------------------|

e|--------------------------------------------|
B|--------------------------------------------|
G|--------------0-----------0-------0---------|
D|----------0-----------0---------------------|
A|------0-----------3-------------------------|
E|------------------------------2-------------|

e|--------------------------------------------|
B|----------------------------------3---------|
G|--------------0-----------0-----------------|
D|----------0-----------0---------------------|
A|--------------------------------------------|
E|------0-----------0-----------0-------------|

e|--------------------------------------------|
B|--------------------------------------------|
G|--------------0-----------0-----------------|
D|----------0-----------0-----------0---------|
A|------------------0-----------3-------------|
E|------2-------------------------------------|
                       (--------------------) omit last time through

variation for first bit:
e|--------------------------------------------|
B|--------------3-----------0-----------------|
G|---------(0)----------0-----------0---------|
D|------4-----------2-----------0-------------|
A|--------------------------------------------|
E|--------------------------------------------|

each chord symbol below gets one bar 6/8 time:

(basic chords; mess around with hammer-ons, vibrato, etc.)

section B:
G - C - Asus2 - D - C - Em - D - D (x3)

section C:
C - C - Em - D (x2)
C - C - Em - D - D (x1)

section D:
Em7 - C - D - D (x2)

song structure: Ax2 > B > C > B > C > D > Ax10

or something like that, anyway - Sean

            
            
Suggest correction
Creating personal tab
Creating personal tab
You can edit any tab online and save it as your Personal.

You can edit, replace or remove any tab part or add personal notes – all changes will be seen only by you.

Personal tabs can be accessed anytime from any device, even offline.
Learn more »
Give kudos to tab author, rate the tab!
1 2 3 4 5
comments
print report bad tab
9 comments total. Showing first comments.
0 reply
guitarnoob90 10 Jan 07, 2008 12:59 PM

A nice video of him playing it live, and you can see how he does it very
clearly.

http://www.youtube.com/watch?v=x8eLaKptYXk

0 reply
CrowLord 51 Feb 17, 2008 07:13 AM

This fits with the youtube live vid link above, but it sounds a bit off from the recorded version from American Gothic

-2 reply
rincewind 70 Mar 09, 2008 01:44 AM

Actually none of the rose march tabs I've seen are correct. First of all it isn't in standard tuning, but 1/2 down (Eb) and then put a capo on 5th fret cause that's what the pumpkins are doing. Or put the capo on 6th fret tuned standard.. Secondly it starts off like this e|--------------------------------------------|
B|--------------3-----------3-----------------|
G|----------0-----------0-----------0---------|
D|------2-----------4-----------0-------------|
A|--------------------------------------------|
E|--------------------------------------------|

guest
Wanna post a correction for this tab? Suggest correction