Oops, an error
Loading. Please wait.

Today tab

version 1
314,334 views 147 this week
25 commentsread comments
1 2 3 4 5
x 52
add to favorites
×
Save as Personal and add changes to this tab that will be seen only by you. Learn more ›
×
You can save this tab as Personal to edit and correct it or add notes. All changes will be seen only by you. Learn more »
launch autoscroll
font size
0
reset
how to read this tab
guitar tuner
backing track
0:00
0:00
edit
Autoscroll
slow
fast
+/-
esc
set tempo
stop
Author
Unregistered
[Intro]

e|---10----12----10-----15p10---------|
B|------10----10----10--------10------|
G|------------------------------------|
D|------------------------------------|
A|------------------------------------|
E|------------------------------------|

while the first guitar is playing the intro the second guitars comes in with:

e|----------------------------------------|
B|----------------------------------------|
G|---8-8-8-8------------------------------|
D|---8-8-8-8-8-8-8-8-6-6-6-6-6-6-6-6------|
A|---6-6-6-6-8-8-8-8-6-6-6-6-6-6-6-6------|
E|-----------6-6-6-6-4-4-4-4-4-4-4-4------|

the second guitar riff is then carried on through the verse but when it it is 
going into the chorus play this:

e|----------------------------------------------|
B|----------------------------------------------|
G|-8-8-8-8--------------------------------------|
D|-8-8-8-8-8-8-8-8-10-10-10-10-10-10-10-10------|
A|-6-6-6-6-8-8-8-8-10-10-10-10-10-10-10-10------|
E|---------6-6-6-6-8--8--8--8--8--8--8--8-------|


[Chorus 1]

heavy distortion...
e|-----------------------------------|
B|-----------------------------------|
G|------------------------------3b---|  < only the first guitar does the
D|-3-3-3-3-6-6-6-6-10-10-10-10-------|    bend, the second guitar
A|-3-3-3-3-6-6-6-6-10-10-10-10-------|    carries on playing 8 - 10 for
E|-1-1-1-1-4-4-4-4-8--8--8--8--------|    4 more beats.

this is repeated through the chorus but ont he seond time of each part there 
is no bend and both guitars play the same.

Then back into the verse
as shown above.


[Chorus 2]

e|------------------------------------|
B|------------------------------------|
G|------------------------------------|
D|--3-3-3-3-6-6-6-6-2-2-2-2-4-4-4-4---|
A|--3-3-3-3-6-6-6-6-2-2-2-2-4-4-4-4---|
E|--1-1-1-1-4-4-4-4-0-0-0-0-2-2-2-2---|

then after the second chorus go into this:

e|------------------------------------------------------------|
B|------------------------------------------------------------|
G|-8-8-8-8---------8-8-8-8------------------------------------| x2
D|-8-8-8-8-8-8-8-8-8-8-8-8-6-6-6-6----------------------------|
A|-6-6-6-6-8-8-8-8-6-6-6-6-6-6-6-6----------------------------|
E|---------6-6-6-6---------4-4-4-4----------------------------|

e|---------------------------------------------------------|
B|---------------------------------------------------------|
G|--8-8-8-8------------------------------------------------| x2
D|--8-8-8-8-8-8-8-8-10-10-10-10-6-6-6-6--------------------|
A|--6-6-6-6-8-8-8-8-10-10-10-10-6-6-6-6--------------------|
E|----------6-6-6-6-8--8--8--8--4-4-4-4--------------------|


Repeat the first chorus


[Chorus 1]

e|-----------------------------------|
B|-----------------------------------|
G|------------------------------3b---|  
D|-3-3-3-3-6-6-6-6-10-10-10-10-------|    
A|-3-3-3-3-6-6-6-6-10-10-10-10-------|    
E|-1-1-1-1-4-4-4-4-8--8--8--8--------|

then finish with the first guitar playin the intro again while then second guitar 
plays:

e|---------------------------------------------------------|
B|---------------------------------------------------------|
G|--8-8-8-8------------------------------------------------|
D|--8-8-8-8-8-8-8-8-10-10-10-10-6-6-6-6--------------------|
A|--6-6-6-6-8-8-8-8-10-10-10-10-6-6-6-6--------------------|
E|----------6-6-6-6-8--8--8--8--4-4-4-4--------------------|



************************************

| p  Pull-off
| b  Bend

************************************

            
            
Suggest correction
Creating personal tab
Creating personal tab
You can edit any tab online and save it as your Personal.

You can edit, replace or remove any tab part or add personal notes – all changes will be seen only by you.

Personal tabs can be accessed anytime from any device, even offline.
Learn more »
comments
print report bad tab
25 comments total. Showing first comments.
-1 reply
Pumpkinhead15 55 Dec 27, 2002 07:00 PM

One thing....this song is played having the guitars tuned down by a half step (like most Pumpkin songs) so that all strings are flat. So this would be correct if all tabs were played one up than written and the guitar tuned down by a half step.

0 reply
rhcp_guitarist 248 Apr 25, 2003 08:00 PM

mmm i dunno im prob wronmg but it sounds better o me if, in the intro u change that 50p10 to 14p10....neways, thats just how i like playing it. And yes the guy before me is right, pumpkins tune all their songs down a half step, but it ounds the same so whateva u wanna do:P

+6 reply
sandalsdude 10 Nov 03, 2003 07:00 PM

yeah this one half step lower you play it like this when its one step lower p=pull off
(let the notes ring)
e-11----13----11----15p11-----|
B----11----11----11------11---|
G-----------------------------|
D-----------------------------|
A-----------------------------|
E-----------------------------|

guest
Wanna post a correction for this tab? Suggest correction