Oops, an error
Loading. Please wait.

Today bass

version 3
version 3
30,784 views 51 this week
3 commentsread comments
1 2 3 4 5
x 21
add to favorites
×
Save as Personal and add changes to this tab that will be seen only by you. Learn more ›
×
You can save this tab as Personal to edit and correct it or add notes. All changes will be seen only by you. Learn more »
launch autoscroll
font size
0
reset
guitar tuner
backing track
0:00
0:00
edit
Autoscroll
slow
fast
+/-
esc
set tempo
stop
Smashing Pumpkins: Today
Tuning 1/2 step down Eb,Ab,Db,Gb,

 
[Intro]

 |--------4 Bar guitar Intro----------|
G|------------------------------------|------------------------------------|
D|------------------------------------|------------------------------------|
A|----------2-2-2-2--0-000-000-000-00-|----------2-2-2-2--0-000-000-000-00-|
E|-0-0-0-0----------------------------|-0-0-0-0----------------------------|

G|------------------------------------|------------------------------------|
D|------------------------------------|------------------------------------|
A|----------2-2-2-2--4-4-4-4-0-0-0-0--|----------2-2-2-2--4-4-4-4-4-4-4-4--|
E|-0-0-0-0----------------------------|-0-0-0-0----------------------------|
 |-------[4 Bar Rest]-----------------|


[Chorus]

G|------------------------------------|------------------------------------|
D|------------------------------------|------------------------------------|
A|----------2-2-2-2--0-000-000-000-00-|----------2-2-2-2--4-4-4-4-4-4-4-4--|
E|-0-0-0-0----------------------------|-0-0-0-0----------------------------|


[Verse]

[G|-----------------------------------|  ]|---------------------------------|
[D|-----------------------------------|  ]|---------------------------------|
[A|---------0-0-0-0--4-444-444-444-44-|3X]|---------0-0-0-0---------7-7-7-7-|
[E|-2-2-2-2---------------------------|  ]|-2-2-2-2---------4-4-4-4---------|


[Chorus]

[G|-----------------------------------|  ]|---------------------------------|
[D|-----------------------------------|  ]|---------------------------------|
[A|-7-7-7-7---------------------------|3X]|-7-7-7-7-------------------------|
[E|---------7-7-7-7--5-555-555-555-55-|  ]|---------7-7-7-7-9-999-999-999-99|


[Verse]

[G|-----------------------------------|  ]|---------------------------------|
[D|-----------------------------------|  ]|---------------------------------|
[A|----------0-0-0-0----------2-2-2-2-|3X]|---------0-0-0-0---------7-7-7-7-|
[E|-2-2-2-2-----------0-0-0-0---------|  ]|-2-2-2-2---------4-4-4-4---------|


[Bridge]

[G|-----------------------------------|  ]|---------------------------------|
[D|-----------------------------------|  ]|---------------------------------|
[A|----------2-2-2-2-----------0-0-0-0|2X]|---------2-2-2-2-4-4-4-4-0-0-0-0=|
[E|-0-0-0-0-----------0-0-0-0---------|  ]|-0-0-0-0-------------------------|

 G|----------------------------------------------------|
 D|----------------------------------------------------|
 A|-----------2-2-2-2--4-4-4-4-4-4-4-4-4-4-4-4-4-4-4-4-|
 E|-0-0-0-0--------------------------------------------|


[Build Up]

[G|-----------------------------------|  ]|---------------------------------|
[D|-----------------------------------|  ]|---------------------------------|
[A|----------0-0-0-0--4-4-4-4-4-4-4-4-|3X]|---------0-0-0-0-----------------|
[E|-2-2-2-2---------------------------|  ]|-2-2-2-2-------------------------|


[Outro]

[G|-----------------------------------|  ] 
[D|-----------------------------------|  ] 
[A|----------2-2-2-2-4-4-4-4--0-0-0-0-|4X]|----Last time let it ring out----|
[E|-0-0-0-0---------------------------|  ]

            
            
Suggest correction
Creating personal tab
Creating personal tab
You can edit any tab online and save it as your Personal.

You can edit, replace or remove any tab part or add personal notes – all changes will be seen only by you.

Personal tabs can be accessed anytime from any device, even offline.
Learn more »
comments
print report bad tab
3 comments total.
+1 reply
CrimsonRedRadio 10 Mar 10, 2010 08:26 AM

I like this tab more then the other its less confusing. the other one has this pattern thing I don't get. yours just runs straight though and don't have to look at a million pages its quick and easy. thanks!

+1 reply
foster.getagrip 143 Jun 30, 2010 12:43 PM

Ya I like how this one is just straightforward. We don't need a pattern 19 for when an there are 2 eights notes inseatd of a quarter. thanks

0 reply
Indorfin 10 Jun 01, 2016 02:12 AM

Listen for the Eb2. Do you really hear a note that deep? Furthermore, you missed all the fills between notes

guest
You may want to rate the tab now too:
select rating
Wanna post a correction for this tab? Suggest correction