Oops, an error
Loading. Please wait.

Today bass

version 4
version 4
14,286 views 6 this week
no commentswrite comment
1 2 3 4 5
x 13
add to favorites
×
Save as Personal and add changes to this tab that will be seen only by you. Learn more ›
×
You can save this tab as Personal to edit and correct it or add notes. All changes will be seen only by you. Learn more »
launch autoscroll
font size
0
reset
guitar tuner
backing track
0:00
0:00
edit
Autoscroll
slow
fast
+/-
esc
set tempo
stop
Author
-------------------------------------------------------------------------------
			     TODAY - Smashing Pumpkins
-------------------------------------------------------------------------------

Tabbed By : Zac Herbison
e-mail: herbyrulez@yahoo.com

Tuning: Standard

I know they usually play in Eb standard, but to the best of my knowledge,
this one is in E.

Also, I listened to the bass on Rockband 2 (I set it to no fail mode, and
turned all the other instruments on, and then left them, causing them to not
play, so I could hear the bass more clearly), and noticed a lot of extra notes
that I haven't seen in any other tabs for this. I don't happen to have my bass
available to me currently, but I did my best to figure them out.

Each "-" is a sixteenth note.
For many of the transitions between chords, when there are two sixteenth notes in a row, 
works best to hammer-on or pull-off from the first one to the second one (for example, 
the first line of the intro, pull-off from the 6th to the 5th)

Intro (0:11 - 0:35)

G|--------------------------------|
D|--------------------------------|
A|6-6-6-65------------------------|
E|--------6-6-6-644-444-444-444444|

G|--------------------------------|
D|--------------------------------|
A|6-6-6-65------------------------|
E|--------6-6-6-644-444-444-444444|

G|--------------------------------|
D|--------------------------------|
A|6-6-6-65------------------------|
E|--------6-6-6-688-8-8-864-4-4-44|

G|--------------------------------|
D|--------------------------------|
A|6-6-6-65------------------------|
E|--------6-6-6-644-4-4-4-4-4-4-4-|


Verse

Today is the greatest.... (0:35 - 0:46)

[No bass]

I'll burn my eyes out.... (0:46 - 0:58)

G|--------------------------------|
D|--------------------------------|
A|6-6-6-65------------------------|
E|--------6-6-6-644-444-444-444444|

G|--------------------------------|
D|--------------------------------|
A|6-6-6-65------------------------|
E|--------6-6-6-688-8-8-8-8-8-8-8-|


Chorus

I wanted more.... (0:58 - 1:21)

G|--------------------------------|
D|--------------------------------|
A|----------------3-333-333-333-31|
E|1-1-1-134-4-4-44----------------|

G|--------------------------------|
D|--------------------------------|
A|----------------3-333-333-333-31|
E|1-1-1-134-4-4-44----------------|

G|--------------------------------|
D|--------------------------------|
A|----------------3-333-333-333-31|
E|1-1-1-134-4-4-44----------------|

G|--------------------------------|
D|--------------------------------|
A|------------------------5-5-5-5-|
E|1-1-1-134-4-4-433-3-3-3---------|


Verse

Today is the greatest.... (1:21 - 1:44)

G|--------------------------------|
D|--------------------------------|
A|6-6-6-65------------------------|
E|--------6-6-6-644-444-444-444444|

G|--------------------------------|
D|--------------------------------|
A|6-6-6-65------------------------|
E|--------6-6-6-644-444-444-444444|

G|--------------------------------|
D|--------------------------------|
A|6-6-6-65------------------------|
E|--------6-6-6-644-444-444-444444|

G|--------------------------------|
D|--------------------------------|
A|6-6-6-65--------3-3-3-3-3-3-3-3-|
E|--------6-6-6-64----------------|


Chorus

Pink ribbon scars.... (1:44 - 2:07)

G|--------------------------------|
D|--------------------------------|
A|----------------3-333-333-333-31|
E|1-1-1-134-4-4-44----------------|

G|--------------------------------|
D|--------------------------------|
A|----------------3-333-333-333-31|
E|1-1-1-134-4-4-44----------------|

G|--------------------------------|
D|--------------------------------|
A|----------------3-333-333-333-31|
E|1-1-1-134-4-4-44----------------|

G|--------------------------------|
D|--------------------------------|
A|------------------------5-5-5-5-|
E|1-1-1-134-4-4-433-3-3-3---------|


Interlude

Today is the greatest.... (2:07 - 2:35)

G|--------------------------------|
D|--------------------------------|
A|6-6-6-65-------56-6-6-65--------|
E|--------6-6-6-6---------4-4-4-44|

G|--------------------------------|
D|--------------------------------|
A|6-6-6-65-------56-6-6-65--------|
E|--------6-6-6-6---------4-4-4-44|

G|--------------------------------|
D|--------------------------------|
A|6-6-6-65------------------------|
E|--------6-6-6-688-8-8-864-4-4-4-|

G|--------------------------------|
D|--------------------------------|
A|6-6-6-65--------3-3-3-3-3-3-3-3-|
E|--------6-6-6-6-----------------|

G|----------------|
D|----------------|
A|3-3-3-3-3-3-3-3-|
E|----------------|


Bridge (2:35 - 2:55)

I want to turn you on....

G|--------------------------------|
D|--------------------------------|
A|----------------3-3-3-3-3-333333|
E|1-1-1-1-4-4-4-4-----------------|

G|--------------------------------|
D|--------------------------------|
A|----------------3-3-3-3-3-333333|
E|1-1-1-1-4-4-4-4-----------------|

G|--------------------------------|
D|--------------------------------|
A|----------------3-3-3-3-3-333333|
E|1-1-1-1-4-4-4-4-----------------|

G|----------------|
D|----------------|
A|----------------|
E|1-1-1-1-4-4-4-4-|

Outro (2:55 - End)

Today is the greatest....

G|--------------------------------|
D|--------------------------------|
A|6-6-6-65------------------------|
E|--------6-6-6-688-8-8-864-4-4-44|

G|--------------------------------|
D|--------------------------------|
A|6-6-6-65------------------------|
E|--------6-6-6-688-8-8-864-4-4-44|

G|--------------------------------|
D|--------------------------------|
A|6-6-6-65------------------------|
E|--------6-6-6-688-8-8-864-4-4-44|

G|--------------------------------|
D|--------------------------------|
A|6-6-6-65------------------------|
E|--------6-6-6-688-8-8-864-4-4-44|

G|----|
D|----|
A|6---|
E|----|

| /  slide up
| \  slide down
| h  hammer-on
| p  pull-off
| ~  vibrato
| +  harmonic
| x  Mute note
===============================================================================
Suggest correction
Creating personal tab
Creating personal tab
You can edit any tab online and save it as your Personal.

You can edit, replace or remove any tab part or add personal notes – all changes will be seen only by you.

Personal tabs can be accessed anytime from any device, even offline.
Learn more »
comments
print report bad tab
guest
You may want to rate the tab now too:
select rating
Wanna post a correction for this tab? Suggest correction