Oops, an error
Loading. Please wait.

Try Try Try Bass Tab

version 1
version 1

Whole song

Interactive

16 views 1 this week
no commentswrite comment
1 2 3 4 5
3 more votes to show rating
add to favorites
launch autoscroll
font size
0
reset
guitar tuner
Autoscroll
slow
fast
+/-
esc
set tempo
stop
Help us to improve Ultimate-Guitar.com Take our survey!
×
Author
Difficulty
novice
Bass Start - 00:09


[Intro]

G|-------------------|-------------------|-------------------|-------------------|
D|----5-5-5-5-5-5-5--|--7----------------|--5----------------|-------------------|
A|--7----------------|----7-7-7-7-7-7-7--|----5-5-5-5-5-5-5--|--7----------------|
E|-------------------|-------------------|-------------------|----7-7-7-7-7-7-7--|


[Verse 1]

G|-------------------|-------------------|-------------------|-------------------|
D|----5-5-5-5-5-5-5--|--7----------------|--5----------------|-------------------|
A|--7----------------|----7-7-7-7-7-7-7--|----5-5-5-5-5-5-5--|--7----------------|
E|-------------------|-------------------|-------------------|----7-7-7-7-7-7-7--|


G|-------------------|-------------------|-------------------|-------------------|
D|----5-5-5-5-5-5-5--|--7----------------|--5----------------|-------------------|
A|--7----------------|----7-7-7-7-7-7-7--|----5-5-5-5-5-5-5--|--7----------------|
E|-------------------|-------------------|-------------------|----7-7-7-7-7-7-7--|


G|-------------------|-------------------|----------------4--|
D|----5-5-5-5-5-5-5--|--7----------------|--5----------------|
A|--7----------------|----7-7-7-7-7-7-7--|----5-5-5-5-5-5----|
E|-------------------|-------------------|-------------------|


[Chorus]

G|--4-2-2-2-2-2-2-4--|----------------4--|--4-2-2-2-2-2-2-4--|----------------4--|
D|-------------------|--2-2-2-2-2-2-2----|-------------------|--2-2-2-2-2-2-2----|
A|-------------------|-------------------|-------------------|-------------------|
E|-------------------|-------------------|-------------------|-------------------|


G|--4-2-2-2-2-2-2-4--|-------------------|-------------------|-------------------|
D|-------------------|--2-2-2-2-2-2-2-2--|--2-2-2-0-0-0-0-0--|--5-5-5-5-5-5-5-5--|
A|-------------------|-------------------|-------------------|-------------------|
E|-------------------|-------------------|-------------------|-------------------|


G|-------------------|-------------------|-------------------|---------------------------|
D|--4-4-4-4-4-4-4-4--|-------------------|--------0-0-0-0-0--|---------------------------|
A|-------------------|--2-2-2-2-2-2-2-2--|--2-2-2------------|--10-10-10-10-10-10-10-10--|
E|-------------------|-------------------|-------------------|---------------------------|


G|-------------------|------------------|-------------------|-------------------|
D|----------------7--|--9-9-9-9-9-9-9\--|--------0-0-0-0-0--|--5-5-5-5-5-5-5-5--|
A|--9-9-9-9-9-9-9----|------------------|--2-2-2------------|-------------------|
E|-------------------|------------------|-------------------|-------------------|


G|-------------------|-------------------|-------------------|-------------------|----------------4--|
D|--4-4-4-4-4-4-4-4--|-------------------|--------0-0-0-0-0--|--5-5-5-5-5-5-5-5--|--4-4-4-4-4-4-4----|
A|-------------------|--2-2-2-2-2-2-2-2--|--2-2-2------------|-------------------|-------------------|
E|-------------------|-------------------|-------------------|-------------------|-------------------|


G|--4-2-2-2-2-2-2-4--|----------------4--|--4-2-2-2-2-2-2-4--|----------------4--|
D|-------------------|--2-2-2-2-2-2-2----|-------------------|--2-2-2-2-2-2-2----|
A|-------------------|-------------------|-------------------|-------------------|
E|-------------------|-------------------|-------------------|-------------------|


G|--4-2-2-2-2-2-2-4--|-------------------|-------------------|-----|-----|-----|-----|
D|-------------------|--2-2-2-2-2-2-2-2--|--2-2-2-0-0-0-0-0--|--5--|-----|-----|-----|
A|-------------------|-------------------|-------------------|-----|--r--|--r--|--r--|
E|-------------------|-------------------|-------------------|-----|-----|-----|-----|


[Verse 2]

G|-------------------|-------------------|-------------------|-------------------|
D|----5-5-5-5-5-5-5--|--7----------------|--5----------------|-------------------|
A|--7----------------|----7-7-7-7-7-7-7--|----5-5-5-5-5-5-5--|--7----------------|
E|-------------------|-------------------|-------------------|----7-7-7-7-7-7-7--|


G|-------------------|-------------------|-------------------|-------------------|
D|----5-5-5-5-5-5-5--|--7----------------|--5----------------|-------------------|
A|--7----------------|----7-7-7-7-7-7-7--|----5-5-5-5-5-5-5--|--7----------------|
E|-------------------|-------------------|-------------------|----7-7-7-7-7-7-7--|


G|-------------------|-------------------|----------------4--|
D|----5-5-5-5-5-5-5--|--7----------------|--5----------------|
A|--7----------------|----7-7-7-7-7-7-7--|----5-5-5-5-5-5----|
E|-------------------|-------------------|-------------------|


[Chorus]

G|--4-2-2-2-2-2-2-4--|----------------4--|--4-2-2-2-2-2-2-4--|----------------4--|
D|-------------------|--2-2-2-2-2-2-2----|-------------------|--2-2-2-2-2-2-2----|
A|-------------------|-------------------|-------------------|-------------------|
E|-------------------|-------------------|-------------------|-------------------|


G|--4-2-2-2-2-2-2-4--|-------------------|-------------------|-------------------|
D|-------------------|--2-2-2-2-2-2-2-2--|--2-2-2-0-0-0-0-0--|--5-5-5-5-5-5-5-5--|
A|-------------------|-------------------|-------------------|-------------------|
E|-------------------|-------------------|-------------------|-------------------|


G|-------------------|-------------------|-------------------|---------------------------|
D|--4-4-4-4-4-4-4-4--|-------------------|--------0-0-0-0-0--|---------------------------|
A|-------------------|--2-2-2-2-2-2-2-2--|--2-2-2------------|--10-10-10-10-10-10-10-10--|
E|-------------------|-------------------|-------------------|---------------------------|


G|-------------------|------------------|-------------------|-------------------|
D|----------------7--|--9-9-9-9-9-9-9\--|--------0-0-0-0-0--|--5-5-5-5-5-5-5-5--|
A|--9-9-9-9-9-9-9----|------------------|--2-2-2------------|-------------------|
E|-------------------|------------------|-------------------|-------------------|


G|-------------------|-------------------|-------------------|-------------------|-------------------|
D|--4-4-4-4-4-4-4-4--|-------------------|--------2-2-2-2-2--|--5-5-5-5-5-5-5-5--|--4-4-4-4-4-4-4-4--|
A|-------------------|--2-2-2-2-2-2-2-2--|--2-2-2------------|-------------------|-------------------|
E|-------------------|-------------------|-------------------|-------------------|-------------------|


G|--------------------|---------------------------|--------------------|----------------------------|
D|--------------------|---------------------------|--------------------|----------------------------|
A|--5-5-5-5-5-5-5-5/--|--10-10-10-10-10-10-10-10--|--5-5-5-5-5-5-5-5/--|--10-10-10-10/14-14-14-14\--|
E|--------------------|---------------------------|--------------------|----------------------------|


G|--------------------|---------------------------|--------------------|-----------------------|
D|--------------------|---------------------------|--------------------|-----------------------|
A|--5-5-5-5-5-5-5-5/--|--10-10-10-10-10-10-10-10--|--5-5-5-5-5-5-5-5/--|--10-10-10\-2-2-2-2-2--|
E|--------------------|---------------------------|--------------------|-----------------------|


G|--------------------|---------------------------|--------------------|-----------------------|
D|--------------------|---------------------------|--------------------|-----------9-9-9----9--|
A|--5-5-5-5-5-5-5-5/--|--10-10-10-10-10-10-10-10--|--5-5-5-5-5-5-5-5/--|--10-10-10-------10----|
E|--------------------|---------------------------|--------------------|-----------------------|


G|-------------------|-------------------|-------------------|-------------------|
D|--9-7-7-7-7-7-7-9--|----------------9--|--9-7-7-7-7-7-7-9--|----------------9--|
A|-------------------|--7-7-7-7-7-7-7----|-------------------|--7-7-7-7-7-7-7----|
E|-------------------|-------------------|-------------------|-------------------|


G|-------------------|-------------------|-------------------|-------------|-----|-----|-----|
D|--9-7-7-7-7-7-7-9--|-------------------|-------------------|--5----------|-----|-----|-----|
A|-------------------|--7-7-7-7-7-7-7-7--|--7-7-7-5-5-5-5-5--|---------9\--|--r--|--r--|--r--|
E|-------------------|-------------------|-------------------|-------------|-----|-----|-----|


[Outro]

G|-------------------|-------------------|-------------------|-------------------|
D|----5-5-5-5-5-5-5--|--7----------------|--5----------------|-------------------|
A|--7----------------|----7-7-7-7-7-7-7--|----5-5-5-5-5-5-5--|----------------5--|
E|-------------------|-------------------|-------------------|--7-7-7-7-7-7-7----|


G|-------------------|-------------------|-------------------|-------------------|
D|----5-5-5-5-5-5-5--|--7----------------|--5----------------|-------------------|
A|--7----------------|----7-7-7-7-7-7-7--|----5-5-5-5-5-5-5--|----------------5--|
E|-------------------|-------------------|-------------------|--7-7-7-7-7-7-7----|


G|-------------------|-------------------|-------------------|-------------------|
D|----5-5-5-5-5-5-5--|--7----------------|--5----------------|-------------------|
A|--7----------------|----7-7-7-7-7-7-7--|----5-5-5-5-5-5-5--|----------------5--|
E|-------------------|-------------------|-------------------|--7-7-7-7-7-7-7----|


G|-------------------|-------------------|-------------------|---------------------|
D|----5-5-5-5-5-5-5--|--7----------------|--5----------------|--9-9-9-------9------|
A|--7----------------|----7-7-7-7-7-7-7--|----5-5-5-5-5-5-5--|------------------5--|
E|-------------------|-------------------|-------------------|--------7-7-7---7----|


G|-------------------|-------------------|-------------------|-------------------|
D|----5-5-5-5-5-5-5--|--7----------------|--5----------------|--9---------9------|
A|--7----------------|----7-7-7-7-7-7-7--|----5-5-5-5-5-5-5--|----------------5--|
E|-------------------|-------------------|-------------------|----7-7-7-7---7----|


G|-------------------|-------------------|-------------------|-------------------|
D|----5-5-5-5-5-5-5--|--7----------------|--5----------------|-------------------|
A|--7----------------|----7-7-7-7-7-7-7--|----5-5-5-5-5-5-5--|----------------5--|
E|-------------------|-------------------|-------------------|--7-7-7-7-7-7-7----|


G|-------------------|-------------------|-------------------|-------------------|---------|
D|----5-5-5-5-5-5-5--|--7----------------|--5----------------|-------------------|----5-5--|
A|--7----------------|----7-7-7-7-7-7-7--|----5-5-5-5-5-5-5--|----------------5--|--7------|
E|-------------------|-------------------|-------------------|--7-7-7-7-7-7-7----|---------|



*******************

| / : slide up
| \ : slide down
| r : rest 

*******************

in regular sequence!

Suggest correction
Give kudos to tab author, rate the tab!
1 2 3 4 5
comments
print report bad tab
guest
You may want to rate the tab now too:
select rating
Wanna post a correction for this tab? Suggest correction