Oops, an error
Loading. Please wait.

United States tab

version 2
version 2

Whole song

Interactive

1,934 views 9 this week
5 commentsread comments
1 2 3 4 5
x 4
add to favorites
×
Save as Personal and add changes to this tab that will be seen only by you. Learn more ›
×
You can save this tab as Personal to edit and correct it or add notes. All changes will be seen only by you. Learn more »
launch autoscroll
font size
0
reset
how to read this tab
guitar tuner
edit
Autoscroll
slow
fast
+/-
esc
set tempo
stop
Author
ok this isnt my tab and i hate when people do this but there are no good tabs of this 
its tons of fun to play and this guy's website is amazing, check it out at 0bscured.com it 
every SP tab imagineable way before anyone else tabs out sp songs!

--tuning: Db Gb B E Ab Db

--INTRO
|---------------------------------------------------------------------|
|---------------------------------------------------------------------|
|---------------------------------------------------------------------|
|---------------------------------------------------------------------|
|---------------------------------------------------------------------|
|-0----------------0----------------0----------------0----------------|

|----------------------------|
|----------------------------|
|----------------------------|
|----------------------------|
|----------------------------|
|-0----/12~~~-10~~~-0-3gb----|

 alt [1:09 - 1:18]
|----------------------------|
|----------------------------|
|----------------------------|
|----------------------------|
|----------------------------|
|-0----/12~~~-10~~~~~~-------|

|-----------------------------------------------------|
|-----------------------------------------------------|
|-----------------------------------------------------|
|-----------------------------------------------------|
|-7---7-0h5h7-7---7-0h5h7-7---7-0h5h7-10---10-10---10-|
|-0---0-0-----0---0-0-----0---0-0-----0----0--0----0--|

 alt [1:29 - 1:32, 1:41 - 1:44]
|---------------------------0--0--0--0----------|
|---------------------------0--0--0--0----------|
|---------------------------16-16-16-15---------|
|---------------------------x--x--x--x----------|
|-7---7-0h5h7-7---7-0h5h7-7-14-14-14-13---------|
|-0---0-0-----0---0-0-----0-0--0--0--0----------|


--VERSE
|-----------------------------------------------------|
|-----------------------------------------------------|
|-----------------------------------------------------|
|-----------------------------------------------------|
|-7---7-0h5h7-7---7-0h5h7-7---7-0h5h7-10---10-10---10-|
|-0---0-0-----0---0-0-----0---0-0-----0----0--0----0--|

 alt [1:51 - 1:54, 2:04 - 2:07]
|---------------------------0--0--0--0----------|
|---------------------------0--0--0--0----------|
|---------------------------16-16-16-15---------|
|---------------------------x--x--x--x----------|
|-7---7-0h5h7-7---7-0h5h7-7-14-14-14-13---------|
|-0---0-0-----0---0-0-----0-0--0--0--0----------|


--PRECHORUS
|-----------------------------------------------------|
|-----------------------------------------------------|
|-----------------------------------------------------|
|-----------------------------------------------------|
|-7---7-0h5h7-7---7-0h5h7-7---7-0h5h7-10---10-10---10-|
|-0---0-0-----0---0-0-----0---0-0-----0----0--0----0--|

 alt [2:15 - 2:18]
|---------------------------0--0--0--0----------|
|---------------------------0--0--0--0----------|
|---------------------------16-16-16-15---------|
|---------------------------x--x--x--x----------|
|-7---7-0h5h7-7---7-0h5h7-7-14-14-14-13---------|
|-0---0-0-----0---0-0-----0-0--0--0--0----------|

 Lead
|-------------|
|-15gr12~~~~--|
|-------------|
|-------------|
|-------------|
|-------------|


--CHORUS
|-----------------------------------------------------|
|-----------------------------------------------------|
|-----------------------------------------------------|
|-----------------------------------------------------|
|-7---7-0h5h7-7---7-0h5h7-7---7-0h5h7-10---10-10---10-|
|-0---0-0-----0---0-0-----0---0-0-----0----0--0----0--|

 alt [2:27 - 2:30, 2:39 - 2:42]
|---------------------------0--0--0--0----------|
|---------------------------0--0--0--0----------|
|---------------------------16-16-16-15---------|
|---------------------------x--x--x--x----------|
|-7---7-0h5h7-7---7-0h5h7-7-14-14-14-13---------|
|-0---0-0-----0---0-0-----0-0--0--0--0----------|

|----------0--0--0--0--------------0--0--0--0--------------0--0--0--0-----|
|----------0--0--0--0--------------0--0--0--0--------------0--0--0--0-----|
|----------16-16-16-15-------------16-16-16-15-------------16-16-16-15----|
|----------x--x--x--x--------------x--x--x--x--------------x--x--x--x-----|
|----------14-14-14-13-------------14-14-14-13-------------14-14-14-13----|
|-0--------0--0--0--0-----0--------0--0--0--0-----0--------0--0--0--0-----|


--PRE-VERSE
|----------------------------|
|----------------------------|
|----------------------------|
|----------------------------|
|----------------------------|
|-0----/12~~~-10~~~-0-3gb----|

 alt [3:11 - 3:20]
|----------------------------|
|----------------------------|
|----------------------------|
|----------------------------|
|----------------------------|
|-0----/12~~~-10~~~~~~-------|

|-----------------------------------------------------|
|-----------------------------------------------------|
|-----------------------------------------------------|
|-----------------------------------------------------|
|-7---7-0h5h7-7---7-0h5h7-7---7-0h5h7-10---10-10---10-|
|-0---0-0-----0---0-0-----0---0-0-----0----0--0----0--|


--VERSE
|-----------------------------------------------------|
|-----------------------------------------------------|
|-----------------------------------------------------|
|-----------------------------------------------------|
|-7---7-0h5h7-7---7-0h5h7-7---7-0h5h7-10---10-10---10-|
|-0---0-0-----0---0-0-----0---0-0-----0----0--0----0--|

 alt [3:40 - 3:43, 3:52 - 3:55]
|---------------------------0--0--0--0----------|
|---------------------------0--0--0--0----------|
|---------------------------16-16-16-15---------|
|---------------------------x--x--x--x----------|
|-7---7-0h5h7-7---7-0h5h7-7-14-14-14-13---------|
|-0---0-0-----0---0-0-----0-0--0--0--0----------|


--CHORUS
|-----------------------------------------------------|
|-----------------------------------------------------|
|-----------------------------------------------------|
|-----------------------------------------------------|
|-7---7-0h5h7-7---7-0h5h7-7---7-0h5h7-10---10-10---10-|
|-0---0-0-----0---0-0-----0---0-0-----0----0--0----0--|

 alt [4:04 - 4:07, 4:19 - 4:22]
|---------------------------0--0--0--0----------|
|---------------------------0--0--0--0----------|
|---------------------------16-16-16-15---------|
|---------------------------x--x--x--x----------|
|-7---7-0h5h7-7---7-0h5h7-7-14-14-14-13---------|
|-0---0-0-----0---0-0-----0-0--0--0--0----------|


--BRIDGE

 Guitar 1
|-------------------------------------------------------------------------|
|-------------------------------------------------------------------------|
|-16-16-16-16-16-16-16-16-16-16-16-16-15-15-15-15-15-15-19-19-19-19-19-19-|
|-------------------------------------------------------------------------|
|-14-14-14-14-14-14-14-14-14-14-14-14-13-13-13-13-13-13-17-17-17-17-17-17-|
|-------------------------------------------------------------------------|
|Guitar 2
|-------------------------------------------------------------------------|
|-------------------------------------------------------------------------|
|-16-16-16-16-16-16-16-16-16-16-16-16-15-15-15-15-15-15-7--7--7--7--7--7--|
|-------------------------------------------------------------------------|
|-14-14-14-14-14-14-14-14-14-14-14-14-13-13-13-13-13-13-5--5--5--5--5--5--|
|-------------------------------------------------------------------------|

 Guitar 1 + 2
|-------------------------------------------------------------------------|
|-------------------------------------------------------------------------|
|-16-16-16-16-16-16-16-16-16-16-16-16-15-15-15-15-15-15-13-13-13-13-13-13-|
|-------------------------------------------------------------------------|
|-14-14-14-14-14-14-14-14-14-14-14-14-13-13-13-13-13-13-11-11-11-11-11-11-|
|-------------------------------------------------------------------------|

 Guitar 1
|-------------------------------------------------------------------------|
|-------------------------------------------------------------------------|
|-16-16-16-16-16-16-16-16-16-16-16-16-15-15-15-15-15-15-19-19-19-19-19-19-|
|-------------------------------------------------------------------------|
|-14-14-14-14-14-14-14-14-14-14-14-14-13-13-13-13-13-13-17-17-17-17-17-17-|
|-------------------------------------------------------------------------|
|Guitar 2
|-------------------------------------------------------------------------|
|-------------------------------------------------------------------------|
|-16-16-16-16-16-16-16-16-16-16-16-16-15-15-15-15-15-15-7--7--7--7--7--7--|
|-------------------------------------------------------------------------|
|-14-14-14-14-14-14-14-14-14-14-14-14-13-13-13-13-13-13-5--5--5--5--5--5--|
|-------------------------------------------------------------------------|

 Guitar 1 + 2
|-------------------------------------------------------------------------|
|-------------------------------------------------------------------------|
|-16-16-16-16-16-16-16-16-16-16-16-16-15-15-15-15-15-15-13-13-13-13-13-13-|
|-------------------------------------------------------------------------|
|-14-14-14-14-14-14-14-14-14-14-14-14-13-13-13-13-13-13-11-11-11-11-11-11-|
|-------------------------------------------------------------------------|

 Guitar 1
|-------------------------------------------------------------------------|
|-------------------------------------------------------------------------|
|-16-16-16-16-16-16-16-16-16-16-16-16-15-15-15-15-15-15-19-19-19-19-19-19-|
|-------------------------------------------------------------------------|
|-14-14-14-14-14-14-14-14-14-14-14-14-13-13-13-13-13-13-17-17-17-17-17-17-|
|-------------------------------------------------------------------------|
|Guitar 2
|-------------------------------------------------------------------------|
|-------------------------------------------------------------------------|
|-16-16-16-16-16-16-16-16-16-16-16-16-15-15-15-15-15-15-7--7--7--7--7--7--|
|-------------------------------------------------------------------------|
|-14-14-14-14-14-14-14-14-14-14-14-14-13-13-13-13-13-13-5--5--5--5--5--5--|
|-------------------------------------------------------------------------|

 Guitar 1 + 2
|-------------------------------------------------------------------------|
|-------------------------------------------------------------------------|
|-16-16-16-16-16-16-16-16-16-16-16-16-15-15-15-15-15-15-12-12-12-12-12-12-|
|-------------------------------------------------------------------------|
|-14-14-14-14-14-14-14-14-14-14-14-14-13-13-13-13-13-13-10-10-10-10-10-10-|
|-------------------------------------------------------------------------|

 Guitar 1
|-------------------------------------------------------------------------|
|-------------------------------------------------------------------------|
|-16-16-16-16-16-16-16-16-16-16-16-16-15-15-15-15-15-15-19-19-19-19-19-19-|
|-------------------------------------------------------------------------|
|-14-14-14-14-14-14-14-14-14-14-14-14-13-13-13-13-13-13-17-17-17-17-17-17-|
|-------------------------------------------------------------------------|
|Guitar 2
|-------------------------------------------------------------------------|
|-------------------------------------------------------------------------|
|-16-16-16-16-16-16-16-16-16-16-16-16-15-15-15-15-15-15-7--7--7--7--7--7--|
|-------------------------------------------------------------------------|
|-14-14-14-14-14-14-14-14-14-14-14-14-13-13-13-13-13-13-5--5--5--5--5--5--|
|-------------------------------------------------------------------------|

 Guitar 1
|-------------------------------------------------------------------------|
|-------------------------------------------------------------------------|
|-19-19-19-19-19-19-18-18-18-18-18-18-17-17-17-17-17-17-16-16-16-16-16-16-|
|-------------------------------------------------------------------------|
|-17-17-17-17-17-17-16-16-16-16-16-16-15-15-15-15-15-15-14-14-14-14-14-14-|
|-------------------------------------------------------------------------|
|Guitar 2
|-------------------------------------------------------------------------|
|-------------------------------------------------------------------------|
|-16-16-16-16-16-16-15-15-15-15-15-15-14-14-14-14-14-14-13-13-13-13-13-13-|
|-------------------------------------------------------------------------|
|-14-14-14-14-14-14-13-13-13-13-13-13-12-12-12-12-12-12-11-11-11-11-11-11-|
|-------------------------------------------------------------------------|

 Guitar 1
|--------------------------------------------------------------------------------------------------------------------------|
|--------------------------------------------------------------------------------------------------------------------------|
|-15-15-15-14-14-14-13-13-13-12-12-12-11-11-11-10-10-10-9-9-9-8-8-8-7-7-7-8-8-8-9-9-9-10-10-10-11//////19------------------|
|--------------------------------------------------------------------------------------------------------------------------|
|-13-13-13-12-12-12-11-11-11-10-10-10-9--9--9--8--8--8--7-7-7-6-6-6-5-5-5-6-6-6-7-7-7-8--8--8--9-//////17------------------|
|---------------------------------------------------------------------------------------------------------0----------------|
|Guitar 2
|--------------------------------------------------------------------------------------------------------------------------|
|--------------------------------------------------------------------------------------------------------------------------|
|-12-12-12-11-11-11-10-10-10-9--9--9--8--8--8--7--7--7--6-6-6-5-5-5-4-4-4-5-5-5-6-6-6-7--7--7--8-//////16------------------|
|--------------------------------------------------------------------------------------------------------------------------|
|-10-10-10-9--9--9--8--8--8--7--7--7--6--6--6--5--5--5--4-4-4-3-3-3-2-2-2-3-3-3-4-4-4-5--5--5--6-//////14------------------|
|-------------------------------------------------------------------------|-------------------------------0----------------|


--INTERLUDE

 Lead
|------------------------------------------------------------------------------------------------|
|-17~~~~--15~~--19~~--17~~~~--15~~--19~~-17~~~~--15~~-19~~-17~~~~--15~~--------------------------|
|-----------------------------------------------------------------------15~~-16~~~~----15~~~~----|
|------------------------------------------------------------------------------------------------|
|------------------------------------------------------------------------------------------------|
|------------------------------------------------------------------------------------------------|

|-------------------------------------------------------------------------------------------------|
|-X-X-X-X-X-X-X-X-X-X-X-X-X-X-X-X-X-X-X-X-X-X-X-X-X-X-X-X-X-X-X-X-X-X-X-X-X-X-X-X-X-X-X-X-X-X-X-X-|
|-X-X-X-X-X-X-X-X-X-X-X-X-X-X-X-X-X-X-X-X-X-X-X-X-X-X-X-X-X-X-X-X-X-X-X-X-X-X-X-X-X-X-X-X-X-X-X-X-|
|-X-X-X-X-X-X-X-X-X-X-X-X-X-X-X-X-X-X-X-X-X-X-X-X-X-X-X-X-X-X-X-X-X-X-X-X-X-X-X-X-X-X-X-X-X-X-X-X-|
|-------------------------------------------------------------------------------------------------|
|-------------------------------------------------------------------------------------------------|

|------------------------------------------------------------------------------------------------|
|------------------------------------------------------------------------------------------------|
|------------------------------------------------------------------------------------------------|
|-9~~~~--10b~~~~---------------------------------------------------------------------------------|
|----------------------11~~~~---10~~~~-5/7b~~~~--7~~~~--5/8b~~~~---------------------------------|
|-----------------------------------------------------------------5b6~~~~gr5----0----------------|

|------------------------------0--------19r18~~~~-19~~--20-------------17b19r17~~~~----|
|-15/17~~-16~~~~--16/20~~~~-----------------------------23b24gr23~~~~------------------|
|--------------------------------------------------------------------------------------|
|--------------------------------------------------------------------------------------|
|--------------------------------------------------------------------------------------|
|--------------------------------------------------------------------------------------|

|---------------------/20~~~~/21~~~~-24~~~~~~~~-|
|-17~~~~/20~~~~/22~~~~--------------------------|
|-----------------------------------------------|
|-----------------------------------------------|
|-----------------------------------------------|
|-----------------------------------------------|


--OUTRO
|------------------------------------------------------------------------------------------|
|------------------------------------------------------------------------------------------|
|------------------------------------------------------------------------------------------|
|------------------------------------------------------------------------------------------|
|-------------(9)(9)---------------(9)(9)---------------(9)(9)-----------------------------|
|-0--0-0--0h10-10-10~~-0--0-0--0h10-10-10~~-0--0-0--0h10-10-10~~-0h11-11-11~~-0h14-14-14~~-|

 Guitar 1
|-------------------------------------------------------------------------|
|-------------------------------------------------------------------------|
|-16-16-16-16-16-16-16-16-16-16-16-16-19-19-19-19-19-19-15-15-15-15-15-15-|
|-------------------------------------------------------------------------|
|-14-14-14-14-14-14-14-14-14-14-14-14-17-17-17-17-17-17-13-13-13-13-13-13-|
|-------------------------------------------------------------------------|
|Guitar 2
|-------------------------------------------------------------------------|
|-------------------------------------------------------------------------|
|-12-12-12-12-12-12-12-12-12-12-12-12-15-15-15-15-15-15-11-11-11-11-11-11-|
|-------------------------------------------------------------------------|
|-10-10-10-10-10-10-10-10-10-10-10-10-13-13-13-13-13-13-9--9--9--9--9--9--|
|-------------------------------------------------------------------------|

 Guitar 1 alt [7:17 - 7:20]
|-------------------------------------------------|
|-------------------------------------------------|
|-16--16--16--15--15--15--14--14--14--13--13--13--|
|-------------------------------------------------|
|-14--14--14--13--13--13--12--12--12--11--11--11--|
|-------------------------------------------------|
|Guitar 2 alt [7:17 - 7:20]
|-------------------------------------------------|
|-------------------------------------------------|
|-12--12--12--11--11--11--10--10--10--9---9---9---|
|-------------------------------------------------|
|-10--10--10--9---9---9---8---8---8---7---7---7---|
|-------------------------------------------------|

|--------------------------------------------------------------------------------|
|--------------------------------------------------------------------------------|
|------------------------------------------------------------------------14~~~~--|
|--------------------------------------------------------------------------------|
|-------------(9)(9)---------------(9)(9)---------------(9)(9)-----------12~~~~--|
|-0--0-0--0h10-10-10~~-0--0-0--0h10-10-10~~-0--0-0--0h10-10-10~~-0--0-0----------|

|--------------------------------------------------------------------------------|
|--------------------------------------------------------------------------------|
|------------------------------------------------------------------------16~~~~--|
|--------------------------------------------------------------------------------|
|-------------(9)(9)---------------(9)(9)---------------(9)(9)-----------14~~~~--|
|-0--0-0--0h10-10-10~~-0--0-0--0h10-10-10~~-0--0-0--0h10-10-10~~-0--0-0----------|

|--------------------------------------------------------------------------------|
|--------------------------------------------------------------------------------|
|------------------------------------------------------------------------14~~~~--|
|--------------------------------------------------------------------------------|
|-------------(9)(9)---------------(9)(9)---------------(9)(9)-----------12~~~~--|
|-0--0-0--0h10-10-10~~-0--0-0--0h10-10-10~~-0--0-0--0h10-10-10~~-0--0-0----------|

|------------------------------------------------------------------------------------------|
|------------------------------------------------------------------------------------------|
|------------------------------------------------------------------------------------------|
|------------------------------------------------------------------------------------------|
|-------------(9)(9)---------------(9)(9)---------------(9)(9)-----------------------------|
|-0--0-0--0h10-10-10~~-0--0-0--0h10-10-10~~-0--0-0--0h10-10-10~~-0h11-11-11~~-0h14-14-14~~-|

|------------------------------------------------------------------------------------------|
|------------------------------------------------------------------------------------------|
|------------------------------------------------------------------------------------------|
|------------------------------------------------------------------------------------------|
|-------------(9)(9)---------------(9)(9)---------------(9)(9)-----------------------------|
|-0--0-0--0h10-10-10~~-0--0-0--0h10-10-10~~-0--0-0--0h10-10-10~~-0h11-11-11~~-0h14-14-14~~-|

|-------------------------------------------------------------------------------------------------------|
|-------------------------------------------------------------------------------------------------------|
|-------------------------------------------------------------------------------------------------------|
|-------------------------------------------------------------------------------------------------------|
|-------------(9)(9)---------------(9)(9)---------------(9)(9)------------------------------------------|
|-0--0-0--0h10-10-10~~-0--0-0--0h10-10-10~~-0--0-0--0h10-10-10~~-0h11-11-11~~-0h14-14-14~~-0h15-15-15~~-|

|--------------------------------------------------------------------------------------------------------------------|
|--------------------------------------------------------------------------------------------------------------------|
|--------------------------------------------------------------------------------------------------------------------|
|--------------------------------------------------------------------------------------------------------------------|
|-------------(9)(9)---------------(9)(9)---------------(9)(9)-------------------------------------------------------|
|-0--0-0--0h10-10-10~~-0--0-0--0h10-10-10~~-0--0-0--0h10-10-10~~-0h11-11-11~~-0h14-14-14~~-0h15-15-15~~-0h17-17-17~~-|

|---------------------------------------------------------------------------------------------------------------------------------|
|---------------------------------------------------------------------------------------------------------------------------------|
|---------------------------------------------------------------------------------------------------------------------------------|
|---------------------------------------------------------------------------------------------------------------------------------|
|-------------(9)(9)---------------(9)(9)---------------(9)(9)--------------------------------------------------------------------|
|-0--0-0--0h10-10-10~~-0--0-0--0h10-10-10~~-0--0-0--0h10-10-10~~-0h11-11-11~~-0h14-14-14~~-0h15-15-15~~-0h17-17-17~~-0h18-18-18~~-|


--OUTRO 2
|---------------------------------------------------------------------------------------------------------|
|---------------------------------------------------------------------------------------------------------|
|---------------------------------------------------------------------------------------------------------|
|---------------------------------------------------------------------------------------------------------|
|---------------------------------------------------------------------------------------------------------|
|-0-0-0-0-0----0-0-0-0-0----0-0-0-0-0----0-0-0-0-0----0-0-0-0-0----0-0-0-0-0----0-0-0-0-0----0-0-0-0-0----|

|-0-0-0-0-0----0-0-0-0-0----0-0-0-0-0----0-0-0-0-0----0-0-0-0-0----0-0-0-0-0----0-0-0-0-0----0-0-0-0-0----|
|-0-0-0-0-0----0-0-0-0-0----0-0-0-0-0----0-0-0-0-0----0-0-0-0-0----0-0-0-0-0----0-0-0-0-0----0-0-0-0-0----|
|-9-9-9-9-9----8-8-8-8-8----9-9-9-9-9----8-8-8-8-8----9-9-9-9-9----8-8-8-8-8----9-9-9-9-9----8-8-8-8-8----|
|-x-x-x-x-x----x-x-x-x-x----x-x-x-x-x----x-x-x-x-x----x-x-x-x-x----x-x-x-x-x----x-x-x-x-x----x-x-x-x-x----|
|-7-7-7-7-7----6-6-6-6-6----7-7-7-7-7----6-6-6-6-6----7-7-7-7-7----6-6-6-6-6----7-7-7-7-7----6-6-6-6-6----|
|-0-0-0-0-0----0-0-0-0-0----0-0-0-0-0----0-0-0-0-0----0-0-0-0-0----0-0-0-0-0----0-0-0-0-0----0-0-0-0-0----|

|---------------------------------------------------------------------------------|
|---------------------------------------------------------------------------------|
|-9-9-9---13~---16~---8-8-8---12~---15~---9-9-9---13~---16~---8-8-8---12~---15~---|
|---------------------------------------------------------------------------------|
|-7-7-7---11~---14~---6-6-6---10~---13~---7-7-7---11~---14~---6-6-6---10~---13~---|
|-------0-----0-----0-------0-----0-----0-------0-----0-----0-------0-----0-----0-|

|---------------------------------------------------------------------------------|
|---------------------------------------------------------------------------------|
|-9-9-9---12~---16~---8-8-8---12~---15~---9-9-9---13~---16~---8-8-8---12~---15~---|
|---------------------------------------------------------------------------------|
|-7-7-7---10~---14~---6-6-6---10~---13~---7-7-7---11~---14~---6-6-6---10~---13~---|
|-------0-----0-----0-------0-----0-----0-------0-----0-----0-------0-----0-----0-|

|--------------------------------------------------------|
|--------------------------------------------------------|
|--------9~~---------11~~---------14~~-------------------|
|-----------------------------------------5-5-5-5/8-8-8--|
|--------7~~---------9~~~---------12~~----5-5-5-5/8-8-8--|
|-0--0-0------0--0-0-------0--0-0-------0-3-3-3-3/6-6-6--|

|--------------------------------------------------------|
|--------------------------------------------------------|
|--------9~~---------11~~---------18~~-------------------|
|-----------------------------------------5-5-5-5/8-8/9--|
|--------7~~---------9~~~---------16~~----5-5-5-5/8-8/9--|
|-0--0-0------0--0-0-------0--0-0-------0-3-3-3-3/6-6/7--|

|--------------------------------------------------------|
|--------------------------------------------------------|
|--------9~~---------11~~---------14~~-------------------|
|-----------------------------------------5-5-5-5/8-8-8--|
|--------7~~---------9~~~---------12~~----5-5-5-5/8-8-8--|
|-0--0-0------0--0-0-------0--0-0-------0-3-3-3-3/6-6-6--|

|------------------------------------------|
|------------------------------------------|
|------------------------------------------|
|---10\9---10\9---10/12---10/12---12-13-13-|
|---10\9---10\9---10/12---10/12---12-13-13-|
|-0-8-\7-0-8-\7-0-8-/10-0-8-/10-0-10-11-11-|

|--------------------------------------------------------|
|--------------------------------------------------------|
|--------9~~---------11~~---------14~~-------------------|
|-----------------------------------------5-5-5-5/8-8-8--|
|--------7~~---------9~~~---------12~~----5-5-5-5/8-8-8--|
|-0--0-0------0--0-0-------0--0-0-------0-3-3-3-3/6-6-6--|

|--------------------------------------------------------|
|--------------------------------------------------------|
|--------9~~---------11~~---------18~~-------------------|
|-----------------------------------------5-5-5-5/8-8/9--|
|--------7~~---------9~~~---------16~~----5-5-5-5/8-8/9--|
|-0--0-0------0--0-0-------0--0-0-------0-3-3-3-3/6-6/7--|

|--------------------------------------------------------|
|--------------------------------------------------------|
|--------9~~---------11~~---------14~~-------------------|
|-----------------------------------------5-5-5-5/8-8-8--|
|--------7~~---------9~~~---------12~~----5-5-5-5/8-8-8--|
|-0--0-0------0--0-0-------0--0-0-------0-3-3-3-3/6-6-6--|

|-------------------------------------------------|
|-------------------------------------------------|
|-------------------------------------------------|
|---10\9---10\9---10/12---10/12---12-13-13-14\\\\-|
|---10\9---10\9---10/12---10/12---12-13-13-14\\\\-|
|-0-8-\7-0-8-\7-0-8-/10-0-8-/10-0-10-11-11-12\\\\-|

b   - bend
r   - release
gb  - gradual bend
gr  - gradual release
h   - hammer on
p   - pull off
T   - trill
W   - whammy bar dive
\   - slide down
/   - slide up
x   - mute
X\  - pick slide
~~~ - vibrato
*7  - artificial harmonic
*7* - natural harmonic
... - palm mute
(0) - optional note
XXX - tremolo pick
alt - variation of riff

go to www.0bscured.com for all your Smashing Pumpkins tabs
Suggest correction
Creating personal tab
Creating personal tab
You can edit any tab online and save it as your Personal.

You can edit, replace or remove any tab part or add personal notes – all changes will be seen only by you.

Personal tabs can be accessed anytime from any device, even offline.
Learn more »
comments
print report bad tab
5 comments total. Showing first comments.
0 reply
08L1V10N 832 Jan 12, 2008 02:15 AM

this is almost perfect

-1 reply
mfarmer113 10 May 18, 2008 01:36 PM

your a ****ing faggot.
no good tabs?
look at mine ass hole.
its way better than yours- my ****ing dog could play the beginning
of YOUR tab.

0 reply
agentguerry 352 May 09, 2013 10:12 AM

This is spot on. Brian (0bscured.com) has perfect tabs. most are on spfc.org. the 0bscured.com website is no longer.. :(

guest
You may want to rate the tab now too:
select rating
Wanna post a correction for this tab? Suggest correction