Oops, an error
Loading. Please wait.

Violet Rays Tab

4,005 views 9 this week
1 commentread comment
1 2 3 4 5
please rate
add to favorites
launch autoscroll
font size
0
reset
how to read this tab
guitar tuner
Tab Pro tools
  • play this tab
  • loop segment
  • change instrument
  • show fretboard
  • metronome
×
Best way to learn
"Violet Rays"
Autoscroll
slow
fast
+/-
esc
set tempo
stop
Contributor
Capo
3rd fret
-------------------------------------------------------------------------------
Violet Rays - The Smashing Pumpkins
-------------------------------------------------------------------------------
Tabbed by: anywayn
E-mail: krasnyi787@gmail.com

Tuning: Standard; opt Capo 3rd fret

INTRO: 0:30
e|-6---6---6---6---6---6---6---6---8----8----8----8----10----10----10--------|
B|--8---8---8---8---8---8---8---8---10---10---10---10----11----11----11------|
G|---7---7---7---7---8---8---8---8----10---10---10---10----12----12----12----|
D|---------------------------------------------------------------------------|
A|---------------------------------------------------------------------------|
E|---------------------------------------------------------------------------|

e|-10----11----11----11----11----13----13----13----13----15----15----15------|
B|---11----11----11----11----11----13----13----13----13----15----15----15----|
G|-----12----12----12----12----12----14----14----14----14----15----15----15--|
D|---------------------------------------------------------------------------|
A|---------------------------------------------------------------------------|
E|---------------------------------------------------------------------------|

e|-15----15----15----15----15----17----17----17----17----18----18----18------|
B|---15----16----16----16----16----18----18----18----18----20----20----20----|
G|-----15----15----15----15----15----17----17----17----17----19----19----19--|
D|---------------------------------------------------------------------------|
A|---------------------------------------------------------------------------|
E|---------------------------------------------------------------------------|
           
e|-18------------------------------------------------------------------------|
B|---20----------------------------------------------------------------------|
G|-----19--333333-333333-333333-333333-333333-333333-333333-333333-333333----|
D|---------555555-555555-555555-555555-555555-555555-555555-555555-555555----|
A|---------555555-666666-888888-555555-666666-888888-555555-666666-888888----|
E|---------------------------------------------------------------------------|

VERSE: 1:06
e|---------------------------------------------------------------------------|
B|----------------------------------------------------------------4----------|
G|-333333-333333-333333-333333-333333-333333-333333-333333-333333-3----------|
D|-555555-555555-555555-555555-555555-555555-555555-555555-555555-5----------|
A|-555555-666666-888888-555555-666666-888888-555555-666666-888888-6----------|
E|---------------------------------------------------------------------------|

Chorus: 1:26
   C      Am     Em     D      C  C      Am     Em     D      C      Em
e|----------------------555555-------------------------555555----------------|
B|-444444-444444--------666666-4~-444444-444444--------666666-444444---------|
G|-333333-555555-333333-555555-3~-333333-555555-333333-555555-333333-333333--|
D|-555555-555555-555555--------5~-555555-555555-555555--------555555-555555--|
A|-666666-333333-555555--------6~-666666-333333-555555--------666633-555555--|
E|---------------------------------------------------------------------------|

   C      C         D   Em
e|------------------555------------------------------------------------------|
B|-444444-444444444-666------------------------------------------------------|
G|-333333-333333333-555-3~---------------------------------------------------|
D|-555555-555555555-----5~---------------------------------------------------|
A|-666666-666666333-----5~---------------------------------------------------|
E|---------------------------------------------------------------------------|


Post Chorus:  (Gradually getting louder)
e|---------------------------------------------------------------------------|
B|---------------------------------------------------------------------------|
G|-333333-333333-333333-333333-333333-333333---------------------------------|
D|-555555-555555-555555-555555-555555-555555---------------------------------|
A|-555555-666666-888888-555555-666666-888888---------------------------------|
E|---------------------------------------------------------------------------|

Verse 2: 2:03
e|---------------------------------------------------------------------------|
B|---------------------------------------------------------------------------|
G|-333333-333333-333333-333333-333333-333333-333333-333333-333333-333333-----|
D|-555555-555555-555555-555555-555555-555555-555555-555555-555555-555555-----|
A|-555555-666666-888888-555555-666666-888888-555555-666666-888888-555555-----|
E|---------------------------------------------------------------------------|

Chorus:
   C Am Em     D      C      C      Am     Em     D      C      Em
e|------------555555------------------------------555555--------------------|
B|-4-4--------666666-444444~-444444-444444--------666666-444444-------------|
G|-3-5-333333-555555-333333~-333333-555555-333333-555555-333333-333333------|
D|-5-5-555555--------555555~-555555-555555-555555--------555555-555555------|
A|-6-3-555555--------666666~-666666-333333-555555--------666633-555555------|
E|--------------------------------------------------------------------------|

   C      C         D   Em C      D      C   Am
e|------------------555-----------555555------------------------------------|
B|-444444-444444444-666----444444-666666-444-444----------------------------|
G|-333333-333333333-555-3~-333333-555555-333-555----------------------------|
D|-555555-555555555-----5~-555555--------555-555----------------------------|
A|-666666-666666333-----5~-666666--------666-333----------------------------|
E|--------------------------------------------------------------------------|

Solo/Outro: 2:58
e|---------------------------------------------------------------------------|
B|---6--------6--------6--------6-------6-------6---------6-------6----------|
G|------3--------3--------3--------3-------3-------3---------3-------3-------|
D|---------------------------------------------------------------------------|
A|------------------------------------6-------6------------------------------|
E|-3-------3---------3--------3-------------------------6--------5-----------|

e|-------5--------------------------5~---------------------------------------|
B|-----6---6--------------6---------6~---------------------------6---------6-|
G|---5-------5---------3-----3------5~----------8---------8---------3--------|
D|------------------5-----------5----------------------8------5---------5----|
A|-3------------------------------------6---6------3-------------------------|
E|---------------3-----------------------------------------------------------|

e|-----------------------------------------------------------------5~--------|
B|-------6--------6-------6--------6--------6-------6------4~--4~--6~--------|
G|-3--------3--------3-------3--------3--------3-------3---5~--3~--5~--------|
D|-----5-------5-------------------------------------------5~--5~------------|
A|---------------------6--------6--------------------------3~--3~------------|
E|---------------------------------------6--------5------------6~------------|

                         C  Am  D      Em    C       D      C      Em     C
e|------------------------------555555---------------555555-------------------------|
B|-----------------------4~-444-666666--------444444-666666-444444--------444444----|
G|--------8----------8---3~-555-555555-333333-333333-555555-333333-333333-333333----|
D|---------------8-------5~-555--------555555-555555--------555555-555555-555555----|
A|-6---6-----3-----------6~-333--------555555-666666--------666633-555555-666666----|
E|----------------------------------------------------------------------------------|

   C      D
e|--------555555-------------------------------------------------------------------|
B|-444444-666666----6-------6--------6-------6-----------6----------6--------------|
G|-333333-555555-------3-------3--------3-------3------------3---------3-----------|
D|-555555--------------------------------------------/7----------7---------5b~-----|
A|-666633--------------------------------------------------------------------------|
E|---------------3--------3-------3-------3----------------------------------------|

e|---------------------------------------------------------------------------------|
B|----6--------6---------6--------6--------------6--------6--------6------6--------|
G|-------3--------3---------3--------3--------------3--------3-------3-------3--3~-|
D|---------------------7--------7---------8b~--------------------7------7-------5~-|
A|------------------------------------------------------------------------------5~-|
E|-3--------3----------------------------------3-------3---------------------------|
************************************

| /   slide up
| \   slide down
| h   hammer-on
| p   pull-off
| ~   vibrato
| +   harmonic
| x   Mute note
| b   Bend
| pb  Pre-bend
| br  Bend release
| pbr Pre-bend release
| brb Bend release bend

************************************

comments
We did not receive enough feedback on this tab! Please rate:
print report bad tab
1 2 3 4 5
I want to post or [tab]
guest
You may want to rate the tab now too:
select rating
Please do not post tabs as comments. Select "correction" instead!