Oops, an error
Loading. Please wait.

Widow Wake My Mind tab

86 views 1 this week
no commentswrite comment
1 2 3 4 5
3 more votes to show rating
add to favorites
×
Save as Personal and add changes to this tab that will be seen only by you. Learn more ›
×
You can save this tab as Personal to edit and correct it or add notes. All changes will be seen only by you. Learn more »
launch autoscroll
font size
0
reset
how to read this tab
guitar tuner
edit
Autoscroll
slow
fast
+/-
esc
set tempo
stop
Author
Difficulty
-------------------------------------------------------------------------------
                             Widow Wake My Mind - The Smashing Pumpkins
-------------------------------------------------------------------------------
Tabbed by: delaopm

Tuning: Standard

Chords used:
C - x32010
G/B - x2003x
Bb - x1333x
F - 133211
Em - 022000
Am - x02210
D - xx0232
D/C# - x4x232
A7sus4 - x02030
G - 320033
D/F# - 2x023x
Cadd9 - x32030

Intro
e|---------------------------------------------------------------------------|
B|---------------------------------------------------------------------------|
G|---------------------------------------------------------------------------|
D|---------------------------------------------------------------------------|
A|---------------------------------------------------------------------------|
E|-8-8-8---8-8-8---8-8-8---7-7-7---6-6-6---6-6-6---6-6-6---1-1-1-------------|
   Oh,             oh,     oh,     oh,             oh,     oh.      Uh, oh.

e|---------------------------------------------------------------------------|
B|---------------------------------------------------------------------------|
G|---------------------------------------------------------------------------|
D|---------------------------------------------------------------------------|
A|---------------------------------------------------------------------------|
E|-8-8-8---8-8-8---8-8-8---7-7-7---6-6-6---6-6-6---6-6-6---------------------|
   Oh,             oh,     oh,     oh,             oh,    

e|------------------------------------||
B|------------------------------------||
G|------------------------------------||
D|------------------------------------||
A|------------------------------------||
E|-1-1-1-1--1/3-3-3--3/5-5-5--5/-7-7--||
   oh.

Verse 1
C(hold)         G/B(hold)   Bb(hold)        F(hold)
  Widow wake my mind,         widow wake my mind.
C(hold)         G/B(hold)   Bb(hold)     
  Widow wake my mind,         widow wake my 

   F        G        Am       G         F        G        Am       G
e|-1-1-1-1--3-3-3-3--5-5-5-5--3-3-3-3---1-1-1-1--3-3-3-3--5-5-5-5--3-3-3-3--|
B|-1-1-1-1--3-3-3-3--5-5-5-5--3-3-3-3---1-1-1-1--3-3-3-3--5-5-5-5--3-3-3-3--|
G|-2-2-2-2--4-4-4-4--5-5-5-5--4-4-4-4---2-2-2-2--4-4-4-4--5-5-5-5--4-4-4-4--|
D|-3-3-3-3--5-5-5-5--7-7-7-7--5-5-5-5---3-3-3-3--5-5-5-5--7-7-7-7--5-5-5-5--|
A|-3-3-3-3--5-5-5-5--7-7-7-7--5-5-5-5---3-3-3-3--5-5-5-5--7-7-7-7--5-5-5-5--|
E|-1-1-1-1--3-3-3-3--5-5-5-5--3-3-3-3---1-1-1-1--3-3-3-3--5-5-5-5--3-3-3-3--|
   mind.                            I'm looking for a love, a love that sh - 

C     Em        Am    F
ines.      That shi - nes, 
C     Em       *F - G - Am - G(Play barre chords)
    a love that shines.         To be
C     Em         Am    F
mine,   yes, all mine,    a
C      Em      
     a love that's

e|-------------------------------------||
B|-------------------------------------||
G|-------------------------------------||
D|-------------------------------------||
A|-------------------------------------||
E|-1-1-1-1--3-3-3-3--5-5-5-5--7-7-7-7--||
   mine.

e|---------------------------------------------------------------------------|
B|---------------------------------------------------------------------------|
G|---------------------------------------------------------------------------|
D|---------------------------------------------------------------------------|
A|---------------------------------------------------------------------------|
E|-8-8-8---8-8-8---8-8-8---7-7-7---6-6-6---6-6-6---6-6-6---1-1-1-------------|
   Oh,             oh,     oh,     oh,             oh,     oh.      Uh, oh.

e|---------------------------------------------------------------------------|
B|---------------------------------------------------------------------------|
G|---------------------------------------------------------------------------|
D|---------------------------------------------------------------------------|
A|---------------------------------------------------------------------------|
E|-8-8-8---8-8-8---8-8-8---7-7-7---6-6-6---6-6-6---6-6-6---------------------|
   Oh,             oh,     oh,     oh,             oh,    

e|------------------------------------||
B|------------------------------------||
G|------------------------------------||
D|------------------------------------||
A|------------------------------------||
E|-1-1-1-1/3-3-3--3/5-5-5--5/-7-7-7---||
   oh.

Verse 2
C(hold)         G/B(hold)   Bb(hold)        F(hold)
  Widow wake my mind,         widow wake my mind.
C(hold)             G/B(hold)   Bb(hold)
  Are you real this time?         Widow wake my

  F         G        Am       G         F        G        Am       G
e|-1-1-1-1--3-3-3-3--5-5-5-5--3-3-3-3---1-1-1-1--3-3-3-3--5-5-5-5--3-3-3-3--|
B|-1-1-1-1--3-3-3-3--5-5-5-5--3-3-3-3---1-1-1-1--3-3-3-3--5-5-5-5--3-3-3-3--|
G|-2-2-2-2--4-4-4-4--5-5-5-5--4-4-4-4---2-2-2-2--4-4-4-4--5-5-5-5--4-4-4-4--|
D|-3-3-3-3--5-5-5-5--7-7-7-7--5-5-5-5---3-3-3-3--5-5-5-5--7-7-7-7--5-5-5-5--|
A|-3-3-3-3--5-5-5-5--7-7-7-7--5-5-5-5---3-3-3-3--5-5-5-5--7-7-7-7--5-5-5-5--|
E|-1-1-1-1--3-3-3-3--5-5-5-5--3-3-3-3---1-1-1-1--3-3-3-3--5-5-5-5--3-3-3-3--|
   mind.                            I'm looking for a love that I can 

C     Em        Am    F
find.     To be mine,  
C     Em         *F - G - Am - G(Play barre chords)
    a love that's mine.           It'll 
C     Em         Am    F
shine,     in my mind,
C     Em       
    a love that 

e|------------------------------------|-------------------------------------||
B|------------------------------------|-------------------------------------||
G|------------------------------------|-------------------------------------||
D|------------------------------------|-------------------------------------||
A|------------------------------------|-------------------------------------||
E|-1-1-1-1--3-3-3-3--5-5-5-5--3-3-3-3-|-1-1-1-1--3-3-3-3--5-5-5-5--7-7-7-7--||
   shines.
 
Bridge
D(hold)      D/C#(hold)    G/B(hold)      A7sus4(hold)
  Accept the grace,    the moment you are in.
D(hold)      D/C#(hold) G/B(hold)       A7sus4(hold)
  Accept the chase   of where we must begin.
*Strum chords
G                D/F#       Em            Cadd9
 'Cause when you crawl, you crawl into my heart.
G              D/F#      Em               A7sus4
  And when you fall, you fall right in my arms.  We’ll

C     Em        Am      F
shine,     yes, we'll shine,
C     Em       *F - G - Am - G(Play barre chords)
  our love will shine.            You'll be 
C     Em            Am      F
mine,      yes, all   mine,
C     Em       
  our love will

e|-------------------------------------||
B|-------------------------------------||
G|-------------------------------------||
D|-------------------------------------||
A|-------------------------------------||
E|-1-1-1-1--3-3-3-3--5-5-5-5--7-7-7-7--||
   shine.

e|---------------------------------------------------------------------------|
B|---------------------------------------------------------------------------|
G|---------------------------------------------------------------------------|
D|---------------------------------------------------------------------------|
A|---------------------------------------------------------------------------|
E|-8-8-8---8-8-8---8-8-8---7-7-7---6-6-6---6-6-6---6-6-6---1-1-1-------------|
   Oh,             oh,     oh,     oh,             oh,     oh.      Uh, oh.

e|---------------------------------------------------------------------------|
B|---------------------------------------------------------------------------|
G|---------------------------------------------------------------------------|
D|---------------------------------------------------------------------------|
A|---------------------------------------------------------------------------|
E|-8-8-8---8-8-8---8-8-8---7-7-7---6-6-6---6-6-6---6-6-6---------------------|
   Oh,             oh,     oh,     oh,             oh,    

e|------------------------------------|-------------------------------------||
B|------------------------------------|-------------------------------------||
G|------------------------------------|-------------------------------------||
D|------------------------------------|-------------------------------------||
A|------------------------------------|-------------------------------------||
E|-1-1-1-1--3-3-3-3--5-5-5-5--3-3-3-3-|-1-1-1-1--3-3-3-3--5-5-5-5--7-7-7-7- ||
   oh.                              I'm looking for a love that I call mine


Outro
||: C(hold) - G/B(hold) - Bb(hold) - F(hold) :|| - *Repeat 2 times

C(hold)      G/B(hold)   Bb(hold)         F(hold)
Shine, we'll shine,         widow wake my mind.
C(hold)      G/B(hold)   Bb(hold)         F(hold)
Shine, we'll shine,         widow wake my mind.
*Strum chords
C            G/B          Bb                   F
Shine, we'll shine, we'll shine, widow wake my mind.
C            G/B          Bb                   F
Shine, we'll shine, we'll shine, widow wake my mind.
C            G/B          Bb                   F
Shine, we'll shine, we'll shine, widow wake my mind.
C            G/B          Bb            
Shine, we'll shine, we'll shine, widow wake my 

e|---------------------------------------||
B|---------------------------------------||
G|---------------------------------------||
D|---------------------------------------||
A|---------------------------------------||
E|-1-1-1-1--3-3-3-3--5-5-5-5--7-7-7-7--8-||
   mind.                         We’ll shine.

            
            
Suggest correction
Creating personal tab
Creating personal tab
You can edit any tab online and save it as your Personal.

You can edit, replace or remove any tab part or add personal notes – all changes will be seen only by you.

Personal tabs can be accessed anytime from any device, even offline.
Learn more »
Give kudos to tab author, rate the tab!
1 2 3 4 5
comments
print report bad tab
guest
You may want to rate the tab now too:
select rating
Wanna post a correction for this tab? Suggest correction