Oops, an error
Loading. Please wait.

Zero tab

version 2
version 2

Whole song

47,483 views 12 this week
10 commentsread comments
1 2 3 4 5
x 4
add to favorites
×
Save as Personal and add changes to this tab that will be seen only by you. Learn more ›
×
You can save this tab as Personal to edit and correct it or add notes. All changes will be seen only by you. Learn more »
launch autoscroll
font size
0
reset
how to read this tab
guitar tuner
backing track
0:00
0:00
edit
Autoscroll
slow
fast
+/-
esc
set tempo
stop
Author
1/2 step down (eb,Bb,Gb,Db,Ab,Eb)

Intro/Chorus:
eb|------------------------------------|
Bb|------------------------------------|
Gb|--5/4-4-----------5-5/4-4-----------|
Db|--5/4-4-----------5-5/4-4-----------|
Ab|--3/2-2-----------3-3/2-2-----------|
Eb|--------2/3/3/4-0---------2/3/3/4-0-|
           * * * *           * * * *
* = Harmonics

Verse:
|--------------------------------|
|--------------------------------|
|--5/4-4---------5-5/4-4---------| x4
|--5/4-4---------5-5/2-2---------|
|--3/2-2-2-2-2-2-3-3/2-2-2-2-2-2-|
|--------0-0-0-0---------0-0-0-0-|

Chorus:
|----------------------------------|
|----------------------------------|
|--9----11-----9-----13/9/7--------| x4
|----------------------------------|
|--7-----9-----7-----11/7/5--------|
|----0-0---0-0---0-0--------0------|

Bridge #1:
|------------------------------------------------------|
|------------------------------------------------------|
|-9-9-9-----------9-9-9-----------9-9-9-----------9-9--|
|-9-9-9-----------9-9-9-----------9-9-9-----------9-9--|
|-7-7-7-----------7-7-7-----------7-7-7-----------7-7--|
|-0-0-0-----------0-0-0-----------0-0-0-----------0-0--|

|------------------//12~~-15b17--|
|-----------//12~----------------|
|--12~---------------------------|
|-------14~----------------------|
|--------------------------------|
|--------------------------------|


Solo Rythm:
|----------------------------------|
|----------------------------------|
|--5/4-------------5-5/4-4---------|
|--5/4-------------5-5/2-2---------|
|--3/2---2-2-2-2-2-3-3/2-2-2-2-2-2-|
|------3---0-0-0-0---------0-0-0-0-|

Solo:
|------------------------------///22-----------------------7-----|
|---------------15b17r15b17r15-------/17~~/17~~--------5---8b10--|
|-----------------------------------------------/14v~~-7b9-------|
|----------------------------------------------------------------|
|-(pick scrape)--------------------------------------------------|
|----------------------------------------------------------------|

|-------------------------------15-----15-----15-----15------|
|--13p12h13p12/15p13h15p13/17~~-18b20~-18b20~-18b20~-18b20~--|
|------------------------------------------------------------|
|------------------------------------------------------------|
|------------------------------------------------------------|
|------------------------------------------------------------|

|--17h19---12~-12------11~~-5~~--------------|
|--------------15b17~------------------------|
|----------------------------------/14b16----|
|--------------------------------------------|
|-------------------------------x------------|
|-------------------------------x------------|


Bridge #2:
(Guitar 1:)
|---------------------------------------|
|---------------------------------------|
|--9-----9-----9-----9----11--1195------| x4
|---------------------------------------|
|--7-----7-----7-----7-----9---977------|
|----0-0---0-0---0-0---0-0----10--------|


(Guitar 2:)
|-------------------------------12-12/14/15/17/19-19--22~--|
|----------------12-12/13/15-15----------------------------|
|--9/11/12/14-14-------------------------------------------| (After 2 times
|----------------------------------------------------------| of Guitar 1
|----------------------------------------------------------| part)
|----------------------------------------------------------|


Order:
Intro/Verse x4
Verse
Chorus
Intro/Verse x6
Bridge #1
Verse
Chorus
Solo
Bridge #2
Intro/Verse x4

            
            
Suggest correction
Creating personal tab
Creating personal tab
You can edit any tab online and save it as your Personal.

You can edit, replace or remove any tab part or add personal notes – all changes will be seen only by you.

Personal tabs can be accessed anytime from any device, even offline.
Learn more »
comments
print report bad tab
10 comments total. Showing first comments.
0 reply
demonsqueeky 10 Aug 04, 2006 10:35 PM

wow so far this is the closest version on this whole site
all the others blow
good job
and if you took this out of the book all the better!

0 reply
Covin 30 Aug 06, 2006 10:12 PM

I agree, but the main solo, I don't know how you tabbed that; perhaps it's beyond my skill, but I don't see how the solo is correct.

0 reply
Metallica708 40 Dec 20, 2006 11:20 AM

Jesus, this is the worst tab I have seen of this song. The only correct bit is that solo at the end.

guest
You may want to rate the tab now too:
select rating
Wanna post a correction for this tab? Suggest correction