Oops, an error
Loading. Please wait.

A Rush And A Push Bass Tab

2,847 views 6 this week
no commentswrite comment
1 2 3 4 5
please rate
add to favorites
launch autoscroll
font size
0
reset
guitar tuner
Tab Pro tools
  • play this tab
  • loop segment
  • change instrument
  • show fretboard
  • metronome
×
Best way to learn
"A Rush And A Push"
Autoscroll
slow
fast
+/-
esc
set tempo
stop
Contributor
A Rush And A Push And The Land Is Ours

[00:14] Intro (Soft)
G |---------------------------------||   |---------------------------------|
D |---------------------------------||   |---------------------------------|
A |-5~~-------------1~~-------------||   |-5~~---------3---1~~-------------|
D |---------------------------------|| 3x|---------------------------------|

[00:32] Verse A
G |---------------------------------|---------------------------------|
D |---------------------------------|---------------------------------|
A |-----0-3-5---3---1-------1---3---|-----0-3-5---3---1-------1---3---|
D |---0-----------------5-3---------|-0-------------------5-3---------|

G |---------------------------------|---------------------------------|
D |-------------3-------------------|---------------------------------|
A |-----0-3-5-------1-------1---3---|-----0-3-5---3---1-------1---3---|
D |-0-------------------5-3---------|-0-------------------5-3---------|

[00:49] Bridge
G |---------------------------------|---------------------------------|
D |---------------------------------|---------------------------------|
A |-----------------------------0---|-------------------------1---3---|
E |-1-----5-----1---0-----3---------|-1-----5-----1---0---------------|

[00:58] Verse B
G |---------------------------------|---------------------------------|
D |---------------------------------|---------------------------------|
A |-----0-3-5---3---1-------1---3---|-----0-3-5---3---1-------1-------|
D |-0-------------------5-3---------|-0-------------------5-3-----3---|

G |---------------------------------|---------------------------------|
D |---------------------------------|-------------3-------------------|
A |-----0-3-5---3---1-------1---3---|-5---0-3-5-------1-------1---3---|
D |-0-------------------5-3---------|---------------------5-3---------|

[01:15] Repeat Bridge

[01:24] Verse C
G |---------------------------------|---------------------------------|
D |---------------------------------|-------------3-------------------|
A |-5---0-3-5---3---1-------1-------|-----0-3-5-------1-------1---3---|
D |---------------------5-3-----3---|-0-------------------5-3---------|

G |---------------------------------|---------------------------------|
D |---------------------------------|---------------------------------|
A |-----0-3-5---3---1-------1---3---|-----0-3-5---3---1-------1---3---|
D |-0-------------------5-3-------3-|-0-------------------5-3---------|

[01:41] Repeat Bridge

[01:50] Verse D
G|---------------------------------| |---------------------------------|     
D|---------------------------------| |---------------------------------|     
A|-----0-3-5---3---1-------1-------| |-----0-3-5---3---1-------1---3---|    
D|-0-------------------5-3-----3---| |-0-------------------5-3---------| 2x  

G |---------------------------------|
D |-5---0-3-5-------1-------1---3---|
A |-------------3-------------------|
D |---------------------5-3---------|

[02:08] Bridge Until End (But only play first bar)
comments
We did not receive enough feedback on this tab! Please rate:
print report bad tab
1 2 3 4 5
I want to post or [tab]
guest
You may want to rate the tab now too:
select rating
Please do not post tabs as comments. Select "correction" instead!