Oops, an error
Loading. Please wait.

Accept Yourself Bass Tab

1,527 views 1 this week
no commentswrite comment
1 2 3 4 5
please rate
add to favorites
launch autoscroll
font size
0
reset
guitar tuner
Tab Pro tools
  • play this tab
  • loop segment
  • change instrument
  • show fretboard
  • metronome
×
Best way to learn
"Accept Yourself"
Autoscroll
slow
fast
+/-
esc
set tempo
stop
Contributor
Difficulty
intermediate
Accept Yourself
The Smiths

Verse A
G |---------------------------------|---------------------------------|
D |---------------------------4-(4)-|---------------------------------|
A |-2---2-------------5---5---------|-2---2---------------------------|
E |-------4---2---4-----------------|-------4---2---4---3---3---5~~---|

Verse B                                                                 
G |---------------------------------|---------------------------------| 
D |-----------------1---1-----------|-----------------------4---4-----| 
A |-2---2-----------------1---------|---------------------------------| 
E |-------4---2~~-------------2~~---|-5---2-5-2-5-2-5-2-2-------------| 

Verse end
G|---------------------------------|
D|---------------------------------|
A|---------------------------------|
E|-3----3----3----5----5----5------|                                                                
Bridge
G |-------4-------------------------|---------4~~-----------4---4-----||
D |-2---2-----2-----------4---------|-----------------2---2---2-----4-||
A |-----------------2---2-----2-----|---------------------------------||
E |---------------------------------|-2-4-4-4-------------------------|| 4x

Break
G |---------------------------------||     |-------------------------------|
D |---------------------------------||     |-------------------------------|
A |-2-2-2-0---0-4-0-2-2-2-------0-4-||     |-------------------------------|
E |-----------------------2---2-----|| 2x  |-0~~-----------2~~-------------|

Outro
G |-----------------|---------------------------------||     |-----|
D |-------4---4-----|---------------------------------||     |-----|
A |-----------------|---------------------------------||     |-----|
E |-2-2-------------|-3----3----3----5----5----5------|| 3x  |-7---|

Order:
[00:00] Verse A | Verse B
[00:13] Verse A | Verse B
[00:27] End
[00:29] Bridge
[00:55] Break
Repeat this 2 times

[03:15] Verse A | Verse B
[03:28] Verse A | Verse B | End
[03:41] Outro
comments
We did not receive enough feedback on this tab! Please rate:
print report bad tab
1 2 3 4 5
I want to post or [tab]
guest
You may want to rate the tab now too:
select rating
Please do not post tabs as comments. Select "correction" instead!