Oops, an error
Loading. Please wait.

Asleep Tab

version 1
version 1

Whole song

Interactive

35,153 views 183 this week
no commentswrite comment
1 2 3 4 5
excellent!
x 17
add to favorites
launch autoscroll
font size
0
reset
how to read this tab
guitar tuner
Tab Pro tools
  • play this tab
  • loop segment
  • change instrument
  • show fretboard
  • metronome
×
Best way to learn
"Asleep"
Autoscroll
slow
fast
+/-
esc
set tempo
stop
Contributor
Difficulty
intermediate
The Smiths: Asleep (from "Louder than bombs" and "The world won't listen")

Arranged for guitar.
The song is in the key of C (no capo) but sounds fine with a capo on the first or second fret.



Intro:

C                 Fmaj7              Am        G      F
e--1---0---------0-|--0---0-----------|--1---0--------|----------------|
B--1---1-----1-----|--1---1-----3--1--|--1---1----3---|--1-----------1-|
G-(0)-(0)----------|-(2)-(2)----------|-(2)-(2)---4---|--2-------2-----| 
D------------------|------------------|---------------|----------------|
A--3------3--------|------------------|--0------------|----------------|
E------------------|--1------1--------|-----------3---|--1--1--1-------|
   1   2     3        1   2     3        1   2    3      1  2    3 


   G                 Am     G           Fmaj7             G
e-----------------|------------------|--0-----------|-----------------|
B--1---0-------3--|-----1---0--------|--------------|---------0-------|
G--0---0----0-----|--2--2------------|------2-----2-|-(/)4------------|
D-----------------|--2--2---0--------|--------------|-----------------|
A-----------------|--0---------------|--------------|-----------------|
E--3-----3--------|---------3--------|--1-------1---|--1/--3----------|
   1   2    3        1  2   3           1   2   3      1   2   3     


Verse:

   C                  Fmaj7              Am       G     F 
e--1---0---------0-|--0---0-----------|--1---0--------|----------------|
B--1---1-----1-----|--1---1-----3--1--|--1---1----3---|--1-----------1-|
G-(0)-(0)----------|-(2)-(2)----------|-(2)-(2)---4---|--2-------2-----| 
D------------------|------------------|---------------|----------------|
A--3------3--------|------------------|--0------------|----------------|
E------------------|--1------1--------|-----------3---|--1--1--1-------|
   1   2     3        1   2     3        1   2    3      1  2    3 

  Sing me to sleep...                                            I'm

   G                 Am     G          Fmaj7            G
e-----------------|------------------|--0-----------|-----------------|
B--1---0-------3--|-----1---0--------|--------------|---------0-------|
G--0---0----0-----|--2--2------------|------2-----2-|-(/)4------------|
D-----------------|--2--2---0--------|--------------|-----------------|
A-----------------|--0---------------|--------------|-----------------|
E--3-----3--------|---------3--------|--1-------1---|--1/--3----------|
   1   2    3        1  2   3           1   2   3      1   2   3     
 
   tired and I...                      want to go to bed


   C                  Fmaj7              Am       G     F 
e--1---0---------0-|--0---0-----------|--1---0--------|----------------|
B--1---1-----1-----|--1---1-----3--1--|--1---1----3---|--1-----------1-|
G-(0)-(0)----------|-(2)-(2)----------|-(2)-(2)---4---|--2-------2-----| 
D------------------|------------------|---------------|----------------|
A--3------3--------|------------------|--0------------|----------------|
E------------------|--1------1--------|-----------3---|--1--1--1-------|
   1   2     3        1   2     3        1   2    3      1  2    3 

   Sing me to sleep...


   G                 Am     G          Fmaj7            G
e-----------------|------------------|--0-----------|-----------------|
B--1---0-------3--|-----1---0--------|--------------|---------0-------|
G--0---0----0-----|--2--2------------|------2-----2-|-(/)4------------|
D-----------------|--2--2---0--------|--------------|-----------------|
A-----------------|--0---------------|--------------|-----------------|
E--3-----3--------|---------3--------|--1-------1---|--1/--3----------|
   1   2    3        1  2   3           1   2   3      1   2   3     

                        and then leave me alone     
                                                     [end of verses 2 and 3, go to Middle]

   C                  Fmaj7              Am       G     F 
e--1---0---------0-|--0---0-----------|--1---0--------|----------------|
B--1---1-----1-----|--1---1-----3--1--|--1---1----3---|--1-----------1-|
G-(0)-(0)----------|-(2)-(2)----------|-(2)-(2)---4---|--2-------2-----|
D------------------|------------------|---------------|----------------|
A--3------3--------|------------------|--0------------|----------------|
E------------------|--1------1--------|-----------3---|--1--1--1-------|
   1   2     3        1   2     3        1   2    3      1  2    3 

  Don't try to wake me...

   G                 Am     G          Fmaj7            
e-----------------|------------------|--0-----------|-----------------|
B--1---0-------3--|-----1---0--------|--------------|-----------------|
G--0---0----0-----|--2--2------------|------2-----2-|--------0---0----|
D-----------------|--2--2---0--------|--------------|-----------------|
A-----------------|--0---------------|--------------|-----------------|
E--3-----3--------|---------3--------|--1-------1---|--1---1---1------|
   1   2    3        1  2   3           1   2   3      1   2   3     



Middle:

   G                             
e-----------------|---------------|-----------------|-----------------|
B-----0-------1---|---0-----------|-----0-------1---|---0-------------|
G--------0--------|-----0---------|--------0--------|-----0-----------|
D-----0-----------|----------0----|-----0-----------|-----------0-----|
A-----------------|---------------|-----------------|-----------------|
E--3-------3----3-|--------3------|--3-------3----3-|--------3--------|
   1  2    3         1  2    3       1  2    3         1  2     3

      Don't feel bad for me...          I want you to know...

   Fmaj7
e--0-----------|------------|--0------------|---------------|
B--------------|------------|---------------|---------------|
G-----2-----2--|------2---2-|-----2-----2---|-------0----0--|
D--------------|------------|---------------|---------------|
A--------------|------------|---------------|---------------|
E--1-----1-----|-1--1---1---|--1------1-----|-1---1----1----|
   1  2  3       1  2   3      1  2   3       1   2    3

   G
e-----------------|---------------|-----------------|-----------------|
B-----0-------1---|---0-----------|-----0-------1---|---0-------------|
G--------0--------|-----0---------|--------0--------|-----0-----------|
D-----0-----------|----------0----|-----0-----------|-----------0-----|
A-----------------|---------------|-----------------|-----------------|
E--3-------3----3-|--------3------|--3-------3----3-|--------3--------|
   1  2    3         1  2    3       1  2    3         1  2     3

    Deep in the cell of my heart...


   Fmaj7
e--0-----------|------------|--0------------|---------------|
B--------------|------------|---------------|---------------|
G-----2-----2--|------2---2-|-----2----2----|---------------|  [third time go to Ending]
D--------------|------------|---------------|---------------|
A--------------|------------|---------------|---------------|
E--1-----1-----|-1------1---|--1-----1------|-1-------------|
   1  2  3       1  2   3      1  2  3        1   2    3


    Fmaj7            G              Fmaj7 
e---0------------|---0------------|--0------------|-------------|
B-------------3--|-(/5)---------3-|----------1----|-------------|
G------2----2----|---(/)-4----4---|-----2------2--|----------2--| 
D----------------|----------------|---------------|------0------|
A----------------|----------------|---------------|-------------|
E---1-----1------|---3------3-----|--1-----1------|--1----------|
    1  2    3        1   2    3      1  2    3       1   2   3

                     G
e---0------------|---0------------|
B-------------3--|-(/5)-------0---|
G------2----2----|---(/)-4--------|
D----------------|----------------|
A----------------|----------------|
E---1-----1------|---3------3-----|
    1  2    3        1   2    3    


[Go back to Verse part for verse 2 and instrumental verse 3] 




Ending:

    Fmaj7            G               Fmaj7
e---0------------|---0------------|--0------------|-------------|
B-------------3--|-(/5)---------3-|----------1----|-------------|
G------2----2----|---(/)-4----4---|-----2------2--|----------2--|
D----------------|----------------|---------------|------0------|
A----------------|----------------|---------------|-------------|
E---1-----1------|---3------3-----|--1-----1------|--1----------|
    1  2    3        1   2    3      1  2    3       1   2   3

    Fmaj7            G               Fmaj7
e---0------------|---0------------|--0------------|-------------|
B-------------3--|-(/5)---------3-|----------1----|-------------|
G------2----2----|---(/)-4----4---|-----2------2--|----------2--|
D----------------|----------------|---------------|------0------|
A----------------|----------------|---------------|-------------|
E---1-----1------|---3------3-----|--1-----1------|--1----------|
    1  2    3        1   2    3      1  2    3       1   2   3

    Fmaj7            G               F
e---0------------|---0------------|---------------||
B------3---------|-(/5)--0--------|--1------------||
G-----------2----|---(/)------4\--|--2------------||
D----------------|------------5\--|---------------||
A----------------|----------------|---------------||
E---1-----1------|---3------3-----|--1------------||
    1  2    3        1   2    3      1  2    3     
 
comments
print report bad tab
I want to post or [tab]
guest
You may want to rate the tab now too:
select rating
Please do not post tabs as comments. Select "correction" instead!