Oops, an error
Loading. Please wait.

Barbarism Begins At Home Bass Tab

version 2
version 2

Whole song

Interactive

3,326 views 6 this week
1 commentread comment
1 2 3 4 5
excellent!
x 1
add to favorites
launch autoscroll
font size
0
reset
guitar tuner
Tab Pro tools
  • play this tab
  • loop segment
  • change instrument
  • show fretboard
  • metronome
Autoscroll
slow
fast
+/-
esc
set tempo
stop
This is the riff played repeatedly for most of the song (I can't be bothered to count 
how many times, sorry):

G|-----------------------------------------------------|
D|---------6-7----4-----------------6-7------------7-6-|
A|------------------2h3-4-3---2-222------555-6-7-------|
E|-2-222-------2-2-------------------------------------|

Then at 5:27 there is a brief break (only one repetition) that goes:

G|-----------------------------------------|
D|-------------------------------------7-6-|
A|---------------4-3-2-------555-6-7-------|
E|-2-----------2---------------------------|

After this, the regular riff is once again played (8 times). At 6:35, a slightly 
different pattern is played:

G|----------------------------------------------|
D|---------6-7----4-----4-6h7p6-4-----------7-6-|
A|------------------222-----------555-6-7-------|
E|-2-222-------2-2------------------------------|

Then after a few beats of drumming, it ends on a single note:

G|---|
D|---|
A|---|
E|-2-|

I'm about 97% sure this is correct. Listen to the song for exact timing.
comments
We did not receive enough feedback on this tab! Please rate:
print report bad tab
1 2 3 4 5
1 comment total.
0 reply
swave75 wrote on November 12 2012, 09:54 pm

Excellent tab my unregistered friend!

I want to post or [tab]
guest
You may want to rate the tab now too:
select rating
Please do not post tabs as comments. Select "correction" instead!