Oops, an error
Loading. Please wait.

Barbarism Begins At Home Bass Tab

version 3
version 3

Whole song

Interactive

1,432 views 27 this week
no commentswrite comment
1 2 3 4 5
please rate
add to favorites
launch autoscroll
font size
0
reset
guitar tuner
Tab Pro tools
  • play this tab
  • loop segment
  • change instrument
  • show fretboard
  • metronome
×
Best way to learn
"Barbarism Begins At Home"
Autoscroll
slow
fast
+/-
esc
set tempo
stop
Contributor
Difficulty
intermediate
BARBARISM BEGINS AT HOME - This tab is based on the live version of the song from 
Rockpalast 1985.
http://www.youtube.com/watch?v=wOWodnU-5cM


ANDY ROURKE TUNES UP A STEP, SO INSTEAD OF G,D,A,E it's A,E,B,F#
MAIN RIFF

A ------------------------------------|---------------------------------|
E ------2-2-------4-5/------2-2-------|-------4-5/-------------5-4------|
B ----------0h2-----------------0h12-1|0-0----------3-x-3-34-5----------|
F#--0-0---------0-------0-0-----------|----2-3--------------------------|

                                ^ these notes are one and two, not twelve


FILL

|-------------------------------------|
|-----0-2--4h5-4/----------------5-4--|
|-0-2----------------3-x-3-34-5-------|
|-------------------------------------|

I'M NOT GREAT AT THESE THINGS BUT THE NOTES ARE ALL CORRECT, HAVE FUN ;)
comments
We did not receive enough feedback on this tab! Please rate:
print report bad tab
1 2 3 4 5
I want to post or [tab]
guest
You may want to rate the tab now too:
select rating
Please do not post tabs as comments. Select "correction" instead!