Oops, an error
Loading. Please wait.

Bigmouth Strikes Again Tab

version 1
version 1

Whole song

Interactive

180,248 views 261 this week
13 commentsread comments
1 2 3 4 5
excellent!
x 43
add to favorites
launch autoscroll
font size
0
reset
how to read this tab
guitar tuner
Tab Pro tools
  • play this tab
  • loop segment
  • change instrument
  • show fretboard
  • metronome
×
Best way to learn
"Bigmouth Strikes Again"
Autoscroll
slow
fast
+/-
esc
set tempo
stop
Contributor
Capo
CMM
4th fret
Tabbed by:CMM
Email:colin_michael_muppet@hotmail.com

Tuning:Standard 

(Chord Progression) (Capo on 4th)
e|--0------0------3------5------0------0------0------1------0------0----|
B|--1------1------1------3------3------1------1------1------1------3----|
G|--2------0------0------0------0------2------0------2------2------4----|
D|--2------2------2------4------4------2------2------3------3------5----|
A|--0------0------3------5------5------0------0------0------0------0----|
E|----------------------------------------------------------------------|
   C#m   C#m7   EaddB   F#add11       C#m    C#m7  A/C#  Amaj7/C#  B6/C#


(2nd Guitar)(No capo)
e|-------------------------------------------------------------------------|
B|--9--7-------------------9--7----------------9--7-----------7------------|
G|--------9--8--x--9---9---------9--8--x--9----------9--8--x-----9----9-9-9|
D|-------------------------------------------------------------------------|
A|-------------------------------------------------------------------------|
E|-------------------------------------------------------------------------|

e|-----------7-----|
B|--------------9--|
G|-8-8--8-8--------|
D|-----------------|
A|-----------------|
E|-----------------|

(Little Fill)
e|------------|
B|--12\9-9~---|
G|------------|
D|------------|
A|------------|
E|------------|

(Interlude Chords) (Capo on 4th)
e|--0------3--------5-----|
B|--0------3--------5-----|
G|--0---------------------|
D|------------------------|
A|------------------------|
E|------------------------|
   G#m     B5       C#5


| /  slide up
| \  slide down
| h  hammer-on
| p  pull-off
| ~  vibrato
| +  harmonic
| x  Mute note
comments
print report bad tab
13 comments total. Showing first comments.
0 reply
TheVinesRule wrote on December 14 2004, 12:00 am

great tab man!

http://www.thesmiths.co.uk

0 reply
lazyboat wrote on March 26 2006, 12:10 pm

great song, great tab

+6 reply
I'm_a_pirate74 wrote on October 21 2006, 08:32 am

Good tab, but I tweaked the 2nd guitar a bit. I think this sounds better (and makes a bit more sense)

(2nd Guitar)(No capo)
e|---------------------------7--------------------------------7----|
B|---9-7-------------9-7--------9---9-7------7------------------9--|
G|--------9-9-8-9--------9-9-------------9-9---9-----9-9-9-9-------|
D|-----------------------------------------------------------------|
A|-----------------------------------------------------------------|
E|-----------------------------------------------------------------|

And repeat a bunch of times...

I want to post or [tab]
guest
You may want to rate the tab now too:
select rating
Please do not post tabs as comments. Select "correction" instead!