Oops, an error
Loading. Please wait.

Bigmouth Strikes Again Bass Tab

version 2
version 2

Whole song

Interactive

7,371 views 12 this week
no commentswrite comment
1 2 3 4 5
please rate
add to favorites
launch autoscroll
font size
0
reset
guitar tuner
Tab Pro tools
  • play this tab
  • loop segment
  • change instrument
  • show fretboard
  • metronome
×
Best way to learn
"Bigmouth Strikes Again"
Autoscroll
slow
fast
+/-
esc
set tempo
stop
Difficulty
intermediate
The Smiths - Bigmouth Strikes Again (bass)

      Q    Q.     E  E  E     E  E  E  E  E  E  E    E    
G||------------------------|--------------------9s-------|
D||*-----------------------|-----------------8------(8)--|
A||*--4----4------4--6--7--|--L--------7--9--------------|
E||------------------------|-----7--6--------------------|


  Q    Q.     E  E  E     E  E  E  E   E  E  E  E   6x
-----------------------|----------------------------||
-----------------------|---------------------------*||
--4----4------4--------|-----4--7---------9--6-----*||
-----------------7--5--|--L--------5s--7--------7---||


   Q    Q    E  E   E  E     E  Q    E  E  E  E    E    
--------6----6------------|-----9----9--------9s--(6)--|
*---------------4s--6-----|----------------8-----------|
*--4-------------------7--|--L----------9--------------|
--------------------------|----------------------------|


  Q    Q    E  E    E   E     E  E  E  E  E  E  E    E    4x
-------6----6--------------|------------------------------||
---------------------------|-----------------------------*||
--4------------6h--(7)-----|-----4--7--------------------*||
------------------------5--|--L--------5--0--0--5h--(7)---||


   Q    Q.     E  E  E     E  E  E  E  E  E  E    E      Q    Q.     E  E  E   
------------------------|--------------------9s-------|-----------------------|
*-----------------------|-----------------8------(8)--|-----------------------|
*--4----4------4--6--7--|--L--------7--9--------------|--4----4------4--------|
------------------------|-----7--6--------------------|-----------------7--5--|


  E  E  E  E   E  E  E  E   6x   Q    Q    E  Q    E   
----------------------------||------------------------|
---------------------------*||*-----------------------|
-----4--7---------9--6-----*||*-----------------------|
--L--------5s--7--------7---||---4----4----4--2----4--|


  E  E  E  S S Q    Q       Q    Q    E  Q    E     E  E  E  S S Q    Q       
-------------------------|-----------------------|--------------------------||
-------------------------|-----------------------|-------------------------*||
-------------------------|-----------------------|-------------------------*||
--L--4--4--x-x-2----2----|--4----4----4--2----4--|--L--4--4--x-x-7----7-----||


   Q    Q.     E  E  E     E  E  E  E  E  E  E    E      Q    Q.     E  E  E   
------------------------|--------------------9s-------|-----------------------|
*-----------------------|-----------------8------(8)--|-----------------------|
*--4----4------4--6--7--|--L--------7--9--------------|--4----4------4--------|
------------------------|-----7--6--------------------|-----------------7--5--|


  E  E  E  E   E  E  E  E   8x
----------------------------||
---------------------------*||
-----4--7---------9--6-----*||
--L--------5s--7--------7---||




Duration Legend
---------------
W - whole
H - half
Q - quarter
E - 8th
S - 16th
T - 32nd
X - 64th
. - note dotted
|-n-|  - n-tuplets


Tablature Legend
----------------
L - tied note
x - dead note
g - grace note
(n) - ghost note
> - accentuded note
NH - natural harmonic
AH - artificial harmonic
TH - tapped harmonic
SH - semi harmonic
PH - pitch harmonic
h - hammer on
p - pull off
b - bend
br - bendRelease
pb - preBend
pbr - preBendRelease
brb - bendReleaseBend
\n/ - tremolo bar dip
\n - tremolo bar dive
-/n - tremolo bar Release up
/n\ - tremolo bar inverted dip
/n - tremolo bar return
-\n - tremolo bar Release down
S - shift slide
s - legato slide
/ -  slide into from below or out of upwards
\ -  slide into from above or out of downwards
~ - vibrato
W - wide vibrato
tr - trill
TP - tremolo picking
T - tapping
S - slap
P - pop
< - fade in
^ - brush up
v - brush down
comments
We did not receive enough feedback on this tab! Please rate:
print report bad tab
1 2 3 4 5
I want to post or [tab]
guest
You may want to rate the tab now too:
select rating
Please do not post tabs as comments. Select "correction" instead!