Oops, an error
Loading. Please wait.

Cemetery Gates Bass Tab

10,663 views 9 this week
1 commentread comment
1 2 3 4 5
excellent!
x 4
add to favorites
launch autoscroll
font size
0
reset
guitar tuner
Tab Pro tools
  • play this tab
  • loop segment
  • change instrument
  • show fretboard
  • metronome
×
Best way to learn
"Cemetery Gates"
Autoscroll
slow
fast
+/-
esc
set tempo
stop
Contributor
Cemetery gates

Intro
G |--------------------------------|--------------------------------|
D |--------------------------------|--------------------------------|
A |-3---3-3-3-5-------------3---5--|-3---3-3-3-5-------------3---5--|
E |---------------3---3-3-3--------|---------------3---3-3-3--------|

G |--------------------------------|--------------------------------|
D |---------------2----------------|--------------------------------|
A |-3---3-3-3-5-------5---3-3------|-3-3-3-5---5--------------------|
E |-----------------------------3-3|-------------3-------------0-1--|

Verse
G |--------------------------------|-------------------------5------|
D |---------5---------------5------|---------5----------------------|
A |--------------------------------|---------------3-----3----------|
E |-3-------------3-----3----------|-3------------------------------|

G |---------5---------------7------|--------------------------------|
D |--------------------------------|-2---2-2-2----------------------|
A |-3-------------5-----5----------|-----------2---3---3-3-3-3-5-5--|
E |--------------------------------|--------------------------------|

Verse End
G |---------5---------------7------|--------------------------------|
D |--------------------------------|--------------------------------|
A |-3-------------5-----5----------|----------------------------(0)-|
E |--------------------------------|-3-------5---3------------------|

Bridge
G |--------------------------------|--------------------------------||
D |---------------4----------------|--------------------------------||
A |-2-------2----------------------|----------------------------5---||
E |--------------------(3)--5---3--|-3-------3---3-5---5----3-------|| 2x

G |--------------------------------|--------------------------------|
D |--------------------------------|--------------------------------|
A |-3-------------3-----3----------|-5-------5-----5-----5----------|
E |-------------3---------------3--|-------------5---------------5--|

G |--------------------------------|--------------------------------|
D |--------------------------------|--------------------------------|
A |-7-------7-----7-----7----------|--------------------------------|
E |-------------7---------------7--|-1-----1-----1-----1-1---1---3--|

Outro
G |--------------------------------|--------------------------------|
D |--------------------------------|--------------------------------|
A |-3---3-3-3-5--------------------|-3---3-3-3-5--------------------|
E |---------------3~~--------------|---------------3~~~-------------|
comments
print report bad tab
1 comment total.
0 reply
swave75 wrote on November 18 2012, 01:22 pm

Dead on! Great tab.

I want to post or [tab]
guest
You may want to rate the tab now too:
select rating
Please do not post tabs as comments. Select "correction" instead!