Oops, an error
Loading. Please wait.

Cemetry Gates tab

version 1
version 1

Whole song

  • This tab has formatting, chord names, the lead guitar, and all the parts.
43,046 views 9 this week
3 commentsread comments
1 2 3 4 5
x 10
add to favorites
×
Save as Personal and add changes to this tab that will be seen only by you. Learn more ›
×
You can save this tab as Personal to edit and correct it or add notes. All changes will be seen only by you. Learn more »
launch autoscroll
font size
0
reset
how to read this tab
guitar tuner
edit
Autoscroll
slow
fast
+/-
esc
set tempo
stop
Author
Difficulty
Unregistered
The song consists of a lot of strumming. I did my best to get the tab close to how it's
played on the record (the Queen is Dead).

e-----
b-----
g-----
d--4--
a--5--
e-----

e-x-x-x-x-x-x--x--2--2-2-----x-x-x-x-x-x--x--2--2-2---------------------|
b-1-1-1-1-1-2--x--3--3-3--3--1-1-1-1-1-2--x--3--3-3--3------------------|
g-0-0-0-0-0-3--0--0--0-0--0--0-0-0-0-0-3--0--0--0-0--0------------------|
d-2-2-2-2-2-0--0-------------2-2-2-2-2-0--0-----------------------------|
a-3-3-3-3-3-0--2-------------3-3-3-3-3-0--2-----------------------------|
e-x-x-x-x-x-x--3-------------x-x-x-x-x-x--3-----------------------------|

e-x-x-x-x-x-x--0--x--x-x----x---x---3-----------------------------------|
b-1-1-1-1-1-2--0--2--1-1----1---2---3-----------------------------------|
g-0-0-0-0-0-3--0--3--0-0----0---3---0-----------------------------------|
d-2-2-2-2-2-0--2--0--2-2----2---0---0-----------------------------------|
a-3-3-3-3-3-0--2--0--3-3----3---0---2-----------------------------------|
e-x-x-x-x-x-x--0--x--x-x----x---x---3-----------------------------------|

e-10-10-10-10-10-x-x-7-7-7-x-5-5-5-x-3----2---0---------0-------2--------|
b-12-12-12-12-12-x-x-8-8-8-x-7-7-7-x-3----3---1---------1-------3--------|
g-12-12-12-12-12-x-x-7-7-7-x-7-7-7-x-0----2---0---------0-------2--------|
d-12-12-12-12-12-x-x-x-x-x-x-7-7-7-x-0----0---2---------2-------0--------|
b--x--x--x--x--x-x-x---------x-x-x-x-2----0---3---------3-------0--------|
e--x--x--x--x--x-x-x---------x-x-x-x-3----x---x---------x-------x--------|

e-10-10-10-10--5--3--3-3-3-3-5-5-5---------------------------------------|
b-12-12-12-12--7--5--5-5-5-5-7-7-7---------------------------------------|
g-12-12-12-12--7--5--5-5-5-5-7-7-7---------------------------------------|
d-12-12-12-12--7--5--5-5-5-5-7-7-7---------------------------------------|
a--x--x--x--x--x--x--x-x-x-x-x-x-x---------------------------------------|
e--x--x--x--x--x--x--x-x-x-x-x-x-x---------------------------------------|

e-10-10-10-10-10-x-x-7-7-7-x-5-5-5-x-3----2---0---------0-------2--------|
b-12-12-12-12-12-x-x-8-8-8-x-7-7-7-x-3----3---1---------1-------3--------|
g-12-12-12-12-12-x-x-7-7-7-x-7-7-7-x-0----2---0---------0-------2--------|
d-12-12-12-12-12-x-x-x-x-x-x-7-7-7-x-0----0---2---------2-------0--------|
b--x--x--x--x--x-x-x---------x-x-x-x-2----0---3---------3-------0--------|
e--x--x--x--x--x-x-x---------x-x-x-x-3----x---x---------x-------x--------|

e-10-10-10-10--5--3--3-3-3-3-5-5-5-5-3-3-3-3-3-3-5--------3--------------|
b-12-12-12-12--7--5--5-5-5-5-7-7-7-7-5-5-5-5-5-5-7--------3--------3-----|
g-12-12-12-12--7--5--5-5-5-5-7-7-7-7-5-5-5-5-5-5-7--------0--------0-----|
d-12-12-12-12--7--5--5-5-5-5-7-7-7-7-5-5-5-5-5-5-7--------0-----0--0-----|
a--x--x--x--x--x--x--x-x-x-x-x-x-x-x-x-x-x-x-x-x-x--------2--------------|
e--x--x--x--x--x--x--x-x-x-x-x-x-x-x-x-x-x-x-x-x-x--------3--------------|

e-15------7-7-7-x-5-5-5-x-3-3-3--2---0---------0-------2-----------------|
b-15------8-8-8-x-7-7-7-x-3-3-3--3---1---------1-------3-----------------|
g-12------7-7-7-x-7-7-7-x-0-0-0--2---0---------0-------2-----------------|
d-12------x-x-x-x-7-7-7-x-0-0-0--0---2---------2-------0-----------------|
b-----------------x-x-x-x-2-2-2--0---3---------3-------0-----------------|
e-----------------x-x-x-x-3-3-3--x---x---------x-------x-----------------|

e-10-10-10-10--5--3--3-3-3-3-5-5-5---------------------------------------|
b-12-12-12-12--7--5--5-5-5-5-7-7-7---------------------------------------|
g-12-12-12-12--7--5--5-5-5-5-7-7-7---------------------------------------|
d-12-12-12-12--7--5--5-5-5-5-7-7-7---------------------------------------|
a--x--x--x--x--x--x--x-x-x-x-x-x-x---------------------------------------|
e--x--x--x--x--x--x--x-x-x-x-x-x-x---------------------------------------|

e-15------7-7-7-x-5-5-5-x-3-3-3--2---0---------0-------2-----------------|
b-15------8-8-8-x-7-7-7-x-3-3-3--3---1---------1-------3-----------------|
g-12------7-7-7-x-7-7-7-x-0-0-0--2---0---------0-------2-----------------|
d-12------x-x-x-x-7-7-7-x-0-0-0--0---2---------2-------0-----------------|
b-----------------x-x-x-x-2-2-2--0---3---------3-------0-----------------|
e-----------------x-x-x-x-3-3-3--x---x---------x-------x-----------------|

e-10-10-10-10--5--3--3-3-3-3-5-5-5-5-3-3-3-3-3-3-5--------3--------------|
b-12-12-12-12--7--5--5-5-5-5-7-7-7-7-5-5-5-5-5-5-7--------3--------3-----|
g-12-12-12-12--7--5--5-5-5-5-7-7-7-7-5-5-5-5-5-5-7--------0--------0-----|
d-12-12-12-12--7--5--5-5-5-5-7-7-7-7-5-5-5-5-5-5-7--------0-----0--0-----|
a--x--x--x--x--x--x--x-x-x-x-x-x-x-x-x-x-x-x-x-x-x--------2--------------|
e--x--x--x--x--x--x--x-x-x-x-x-x-x-x-x-x-x-x-x-x-x--------3--------------|

e-2----------------2--2-2------2--2-2------------------------------------|
b-3----------------3--3-3--3---3--3-3--3---------------------------------|
g-4------------------------4-----------4--4------------------------------|
d-4---------------------------------------4------------------------------|
a------------------------------------------------------------------------|
e------------------------------------------------------------------------|

e-----10-------------------0----------------2-------3--2-------3---------|
b-8--8-8--8----8--8/10\8---1----------------3-------3--3-------5---------|
g-7--7----7----------------0----------------2-------2--2-------4---------|
d--------------------------2----------------0------------------5---------|
a--------------------------3----------------0----------------------------|
e--------------------------x----------------x----------------------------|

e-1----------------15------7-7-7-x-5-5-5-x-3----14---15-------------------|
b-1----------------15------8-8-8-x-7-7-7-x-3----15---13-----------------8-|
g-2----------------12------7-7-7-x-7-7-7-x-0------------------7--7/9------|
d-3----------------12------x-x-x-x-7-7-7-x-0------------------------------|
a-3--------------------------------x-x-x-x-2------------------------------|
e-1--------------------------------x-x-x-x-3------------------------------|

e---10---------10-10-10-10--5--3--3-3-3-3-5-5-5--------------------------|
b---10---------12-12-12-12--7--5--5-5-5-5-7-7-7--------------------------|
g---11---------12-12-12-12--7--5--5-5-5-5-7-7-7--------------------------|
d--------------12-12-12-12--7--5--5-5-5-5-7-7-7--------------------------|
a---------------x--x--x--x--x--x--x-x-x-x-x-x-x--------------------------|
e---------------x--x--x--x--x--x--x-x-x-x-x-x-x--------------------------|

e-15------7-7-7-x-5-5-5-x-3----14---8---------------------10-------------|
b-15------8-8-8-x-7-7-7-x-3----15---8-----------------8---10-------------|
g-12------7-7-7-x-7-7-7-x-0-----------------7--7/9--------11-------------|
d-12------x-x-x-x-7-7-7-x-0----------------------------------------------|
a-----------------x-x-x-x-2----------------------------------------------|
e-----------------x-x-x-x-3----------------------------------------------|

e-10-10-10-10--5--3--3-3-3-3-5---------------10---------15---------------|
b-12-12-12-12--7--5--5-5-5-5-7-----------8---10---------15---------------|
g-12-12-12-12--7--5--5-5-5-5-7-7--7/9--------11---------12---------------|
d-12-12-12-12--7--5--5-5-5-5-7--------------------------12---------------|
a--x--x--x--x--x--x--x-x-x-x-x-------------------------------------------|
e--x--x--x--x--x--x--x-x-x-x-x-------------------------------------------|

e-2-----------------2h3p2h3p2-----2h3p2-2---------------------------10----|
b-3----------------------------3-----------3--------------------8--8-8--8-|
g-4-------------------------------------------4-----------------7--7----7-|
d-4-----------------------------------------------------------------------|
a-------------------------------------------------------------------------|
e-------------------------------------------------------------------------|

e---------------3----------------2-------3--2-------3----------------1---|
b---8--8/10\8---5----------------3-------3--3-------5----------------1---|
g---------------5----------------2-------2--2-------4----------------2---|
d---------------5----------------0------------------5----------------3---|
a---------------x----------------0-----------------------------------3---|
e---------------x----------------x-----------------------------------1---|

e-----15-----7-7-7-x-5-5-5-x-3----14---8---------------------10----------|
b-----15-----8-8-8-x-7-7-7-x-3----15---8-----------------8---10----------|
g-12---------7-7-7-x-7-7-7-x-0-----------------7--7/9--------11----------|
d-12---------x-x-x-x-7-7-7-x-0-------------------------------------------|
a--------------------x-x-x-x-2-------------------------------------------|
e--------------------x-x-x-x-3-------------------------------------------|

e-10-10-10-10--5--3--3-3-3-3-5-5-5---------------------------------------|
b-12-12-12-12--7--5--5-5-5-5-7-7-7---------------------------------------|
g-12-12-12-12--7--5--5-5-5-5-7-7-7---------------------------------------|
d-12-12-12-12--7--5--5-5-5-5-7-7-7---------------------------------------|
a--x--x--x--x--x--x--x-x-x-x-x-x-x---------------------------------------|
e--x--x--x--x--x--x--x-x-x-x-x-x-x---------------------------------------|

e-----15-----7-7-7-x-5-5-5-x-3----14---8---------------------10----------|
b-----15-----8-8-8-x-7-7-7-x-3----15---8-----------------8---10----------|
g-12---------7-7-7-x-7-7-7-x-0-----------------7--7/9--------11----------|
d-12---------x-x-x-x-7-7-7-x-0-------------------------------------------|
a--------------------x-x-x-x-2-------------------------------------------|
e--------------------x-x-x-x-3-------------------------------------------|

e-10-10-10-10--5--3--3-3-3-3-5-5-5-5-3-3-3-3-3-3-5--------3-----x---------|
b-12-12-12-12--7--5--5-5-5-5-7-7-7-7-5-5-5-5-5-5-7--------3-----1--0------|
g-12-12-12-12--7--5--5-5-5-5-7-7-7-7-5-5-5-5-5-5-7--------0-----0--0------|
d-12-12-12-12--7--5--5-5-5-5-7-7-7-7-5-5-5-5-5-5-7--------0-----2--0------|
a--x--x--x--x--x--x--x-x-x-x-x-x-x-x-x-x-x-x-x-x-x--------2-----3--2------|
e--x--x--x--x--x--x--x-x-x-x-x-x-x-x-x-x-x-x-x-x-x--------3-----x--3------|

e-x-x-x-x-x-x--x--2--2-2-----x-x-x-x-x-x--x--2--2-2---------------------|
b-1-1-1-1-1-2--x--3--3-3--3--1-1-1-1-1-2--x--3--3-3--3------------------|
g-0-0-0-0-0-3--0--0--0-0--0--0-0-0-0-0-3--0--0--0-0--0--(to fade out)---|
d-2-2-2-2-2-0--0-------------2-2-2-2-2-0--0-----------------------------|
a-3-3-3-3-3-0--2-------------3-3-3-3-3-0--2-----------------------------|
e-x-x-x-x-x-x--3-------------x-x-x-x-x-x--3-----------------------------|

            
            
Suggest correction
Creating personal tab
Creating personal tab
You can edit any tab online and save it as your Personal.

You can edit, replace or remove any tab part or add personal notes – all changes will be seen only by you.

Personal tabs can be accessed anytime from any device, even offline.
Learn more »
comments
print report bad tab
3 comments total.
0 reply
oglockwood 10 Mar 05, 2009 04:59 PM

it's in open E tuning on the record

0 reply
oglockwood 10 Mar 05, 2009 05:46 PM

i mean open g my bad

0 reply
SaintLedger 391 Jun 19, 2014 11:30 AM

Lack of accuracy. Clearly wrong.

guest
Wanna post a correction for this tab? Suggest correction