Oops, an error
Loading. Please wait.

Death At Ones Elbow Bass Tab

445 views 1 this week
1 commentread comment
1 2 3 4 5
please rate
add to favorites
launch autoscroll
font size
0
reset
guitar tuner
Tab Pro tools
  • play this tab
  • loop segment
  • change instrument
  • show fretboard
  • metronome
×
Best way to learn
"Death At Ones Elbow"
Autoscroll
slow
fast
+/-
esc
set tempo
stop
Contributor
Death at one's elbow

Riff A
G |--------------------------------|--------------------------------|
D |--------------------------------|--------------------------------|
A |--------------------------------|-3-------3-------5-------5------|
E |-3---5-------5---3-------0---3--|--------------------------------|

G |--------------------------------|--------------------------------|
D |--------------------------------|--------------------------------|
A |--------------------------------|--------------------------------|
E |-5---5-------5---3---0---3---5--|-5---5-------5---3---0---3---5--|

Riff B
G |--------------------------------|--------------------------------|
D |--------------------------------|--------------------------------|
A |-5-------5-------5-------5------|\5------\5------\5------\5------|
E |--------------------------------|--------------------------------|

G |--------------------------------|--------------------------------|
D |--------------------------------|--------------------------------|
A |--------------------------------|--------------------------------|
E |-5---5-------5---3-------0---3--|-5---5-------5---3---3---2---0--|

G |--------------------------------|--------------------------------|
D |--------------------------------|--------------------------------|
A |--------------------------------|--------------------------------|
E |-0~~-------------1~~------------|-3~~----------------------------|

 (Last time 2x)

G |--------------------------------|--------------------------------|
D |--------------------------------|--------------------------------|
A |--------------------------------|--------------------------------|
E |-5---5-------5---3-------0---3--|-5---5-------5---3---0---3---5--|


Order:
[00:13] Riff A 2x
[00:28] Riff B
[00:44] Riff A 2x
[00:59] Riff B
[01:15] Riff A 2x (First bar more Silent)
[01:31] Riff B (Do 3rd Bar two times)
[01:50] 3rd Bar of Riff B again
comments
We did not receive enough feedback on this tab! Please rate:
print report bad tab
1 2 3 4 5
1 comment total.
0 reply
swave75 wrote on November 18 2012, 02:54 pm

Awesome tab dude!

I want to post or [tab]
guest
You may want to rate the tab now too:
select rating
Please do not post tabs as comments. Select "correction" instead!