Oops, an error
Loading. Please wait.

Draize Train Tab

4,253 views 9 this week
no commentswrite comment
1 2 3 4 5
accurate
x 3
add to favorites
launch autoscroll
font size
0
reset
how to read this tab
guitar tuner
Tab Pro tools
  • play this tab
  • loop segment
  • change instrument
  • show fretboard
  • metronome
×
Best way to learn
"Draize Train"
Autoscroll
slow
fast
+/-
esc
set tempo
stop
Contributor
-----------------------------------------------------------------------------
                           The Draize Train - Smiths
-----------------------------------------------------------------------------
Tabbed by: David K.
Email: thischarmingman13@gmail.com

Tuning: Standard

I used the Kilburn video (http://www.youtube.com/watch?v=zVTBVjEyND0) for reference.

  (Intro)                                   (Main riff)
e|---3---3----.--3-2--0-----3--3--0--3--2------.-.---------------------------|
B|---3---3----.--3-3--0-----3--3--0--3--3---0-0.-.----0000-------------------|
G|-0---0------.--2-2--0-----0--0--0--2--2---0-0.-.----0000-------------------|
D|-2---2----2-.--0-0--2-----2--2--2--0--0---4-5.-.4-5------------------------|
A|-3---3----0-.-------2-----3--3--3---------5-7.-.5-7------------------------|
E|--------------------0------------------------------------------------------|

(Variation 1, 0:30)
e|-3-3-3-3-2p0-----------3-3-3-3-2\3-3-3-3-3---3-3-3-3-2p0-------------------|
B|-5-5-5-5-----3-3-3-3---5-5-5-5-3\5-5-5-5-5---5-5-5-5-----3-3-3-3-----------|
G|-------------4-4-4-4-------------------------------------4-4-4-4-----------|
D|---------------------------------------------------------------------------|
A|---------------------------------------------------------------------------|
E|---------------------------------------------------------------------------|
   (Bend, release slowly)          (2 chords, 0:47)            (0:51)
e|----------------------------------33-33-3-3-3--55-55-5-5-5-----------------|
B|----333---------------------------55-55-5-5-5--77-77-7-7-7----------15-----|
G|-2^4----4^2-2-2-2p0---0-----------55-55-5-5-5--77-77-7-7-7----14^16----16^-|
D|--------------------2-------------55-55-5-5-5--77-77-7-7-7----------------|
A|---------------------------------------------------------------------------|
E|---------------------------------------------------------------------------|
                                             (1:16, arpeggio)
e|--------------------------------------------12-----------------------------|
B|----------------------------------------------12--12-----------------------|
G|-14-12---11h12p11----11h12---11-----------------12--12---------------------|
D|------------------14------------14-14--------------------------------------|
A|---------------------------------------------------------------------------|
E|---------------------------------------------------------------------------|
(1:35, A chord, strum)          (2:57, repeat)
e|-7------------------------------3-----------3------------------------------|
B|-8----------------------------5--..5p3---33--------------------------------|
G|-9-------------------------------------4-----------------------------------|
D|-7-------------------------------------------------------------------------|
A|---------------------------------------------------------------------------|
E|---------------------------------------------------------------------------|
   (strum the chords furiously)
e|-12-/-15-------------------------------------------------------------------|
B|-12-/-15-------------------------------------------------------------------|
G|-12-/-16-------------------------------------------------------------------|
D|---------------------------------------------------------------------------|
A|---------------------------------------------------------------------------|
E|---------------------------------------------------------------------------|

Intro, 0:00
Main, :31
2 Chords, :47
Bend, :51
2 Chords
Main
Arpeggio, 1:16
Bend, 1:22
2 chords
'A' chord, 1:35
Intro, 1:46
2 chords, 2:06
2 chords, 2:14
'A' chord, 2:22
Variation on main riff, 2:37
'A" chord pull off on 7 and 8, B-string
2 chords
2:57 improvisation
2 chords
12th fret slide to 15th
End is the intro again, at 4:04

| ^  bend up
| /  slide up
| \  slide down
| h  hammer-on
| p  pull-off
| ~  vibrato
| +  harmonic
| .  Mute note
=============================================================================
comments
We did not receive enough feedback on this tab! Please rate:
print report bad tab
1 2 3 4 5
I want to post or [tab]
guest
You may want to rate the tab now too:
select rating
Please do not post tabs as comments. Select "correction" instead!