Oops, an error
Loading. Please wait.

Girlfriend In A Coma Bass Tab

version 1
version 1

Whole song

Interactive

7,955 views 21 this week
3 commentsread comments
1 2 3 4 5
accurate
x 3
add to favorites
launch autoscroll
font size
0
reset
guitar tuner
Tab Pro tools
  • play this tab
  • loop segment
  • change instrument
  • show fretboard
  • metronome
Autoscroll
slow
fast
+/-
esc
set tempo
stop
Contributor
Difficulty
intermediate
Girlfriend In A Coma
The smiths
  

Intro
G |---------------------------------|---------------------------------||
D |-----5-------5-------5-------5---|-----5-------5-------5-------5---||
A |---------------------------------|---------------------------------||
E |-3-------3-------3-------3-------|-3-------3-------3-------3-------|| 2x

Verse
G |---------------------------------|---------------------------------||
D |---------------------------------|-------------5-------------------||
A |-------------------------3---5-5-|-3-------5-------5---------------||
E |-3-------3---3---3---------------|-------------------------0---2---|| 8x

Chorus
G |---------------------------------|---------------------------------||
D |-2---2---2-----------0-----------|-------------------------0-------||
A |---------------------------------|-3---3---3-----------------------||
E |---------------------------------|---------------------------------|| 2x

G |---------------------------------|---------------------------------|
D |-2---2---2-----------0-----------|---------------------------------|
A |---------------------------------|-3-------3-------3-------3-------|
E |---------------------------------|---------------------------------|

Order:
[00:00] Intro
[00:09] Verse
[00:45] Chorus
[01:00] Verse
[01:37] Chorus
[01:51] Verse (Play only 1 time)
comments
We did not receive enough feedback on this tab! Please rate:
print report bad tab
1 2 3 4 5
3 comments total.
0 reply
Bassprogman wrote on December 19 2012, 02:34 pm

Great song Great tab. Nice job man

0 reply
OrangeTrousers wrote on July 13 2013, 07:51 am

I hear the verse as...
Verse
G |---------------------------------|---------------------------------||
D |-------------5-------------------|-------------5-------------------||
A |-------------------------3---5---|-3-------7-------5\--------------||
E |-3-------3-------3---------------|-------------------------0---2---||

0 reply
belowyourfeet wrote on May 10 2015, 10:52 am, edited at 10:53 am

The verse should be something like this:

G |---------------------------------|-----------------------------------||
D |-------------5-------------------|-------------5---------------------||
A |-----------------------------5-5-|-3-------5/7-----5\----------------||
E |-3-------3-------3-------5/7-----|-------------------------0---2-(2)-||

The last (2) is not always played.

I want to post or [tab]
guest
You may want to rate the tab now too:
select rating
Please do not post tabs as comments. Select "correction" instead!