Oops, an error
Loading. Please wait.

Girlfriend In A Coma Tab

version 3
version 3

Whole song

Interactive

31,811 views 69 this week
no commentswrite comment
1 2 3 4 5
excellent!
x 7
add to favorites
launch autoscroll
font size
0
reset
how to read this tab
guitar tuner
Tab Pro tools
  • play this tab
  • loop segment
  • change instrument
  • show fretboard
  • metronome
Autoscroll
slow
fast
+/-
esc
set tempo
stop
Contributor
Girlfriend In A Coma - The Smiths

The song has many layers of guitar. I've tabbed out the song in a way that you can play 
of them. The best way to play this song is to let all the notes ring for as long as 
(except of course while strumming).

Capoed on 5 (A-D-G-C-E-A)

Intro (repeat x4)
A-3-3-3-3-3-2---2-3--2-----------------------------------------------------|
E-3-3-3-3-3-3---3-3--3-----------------------------------------------------|
C-2-2-2-2-2-2---2-2--2-----------------------------------------------------|
G--------------------------------------------------------------------------|
D--------------------------------------------------------------------------|
A--------------------------------------------------------------------------|

Verse
A-2----------5----5\--------------------0----2--------0--------3----3--2---|
E-3----------7----7\--------3--2-----3----------3--------2-----------------|
C-2-------------------------------2----------------2--------2--------------|
G--------------------------------------------------------------------------|
D--------------------------------------------------------------------------|
A--------------------------------------------------------------------------|

A-0----------0-------------------------------------------------------------|
E----2----3----------------------------------------------------------------|
C--------------------------------------------------------------------------|
G--------------------------------------------------------------------------|
D--------------------------------------------------------------------------|
A--------------------------------------------------------------------------|

Chorus (strum, repeat x2)
A-2----------0----x------------0-------------------------------------------|
E-3----------2----3------------2-------------------------------------------|
C-4----------2----0------------2-------------------------------------------|
G-4----------2----0------------2-------------------------------------------|
D-2----------0----2------------0-------------------------------------------|
A-2----------0----3------------0-------------------------------------------|

End Chorus With
A-------2-----0-----------------2-----0--------0---------------------------|
E----3-----3-----3--2--3-----3-----3-----3--2------------------------------|
C-4-----------------------0------------------------------------------------|
G--------------------------------------------------------------------------|
D--------------------------------------------------------------------------|
A--------------------------------------------------------------------------|

comments
print report bad tab
I want to post or [tab]
guest
You may want to rate the tab now too:
select rating
Please do not post tabs as comments. Select "correction" instead!