Oops, an error
Loading. Please wait.

Heaven Knows Im Miserable Now Bass Tab

version 1
version 1

Whole song

Interactive

21,811 views 51 this week
4 commentsread comments
1 2 3 4 5
accurate
x 5
add to favorites
launch autoscroll
font size
0
reset
guitar tuner
Tab Pro tools
  • play this tab
  • loop segment
  • change instrument
  • show fretboard
  • metronome
×
Best way to learn
"Heaven Knows Im Miserable Now"
Autoscroll
slow
fast
+/-
esc
set tempo
stop
Contributor
Heaven knows i'm miserable now

Intro
G |-----------------------6-6------|--------------------------------|
D |-4~~-------------------------4--|--------------------------------|
A |--------------------------------|-5~~-------------------0-0---5--|
E |--------------------------------|--------------------------------|

G |--------------------------------|--------------------------------|
D |--------------------------------|--------------------------------|
A |-4~~----------------------------|-2~~----------------------------|
E |---------------------4~~--------|-----------------------------2--|

G |--------------------------------|--------------------------------|
D |--------------------------------|---------------------4---4------|
A |-2---------------2---2-------2--|-4-----------------2---2-----4--|
E |---------------2---2------------|--------------------------------|

G |--------------------------------|--------------------------------|
D |--------------------------------|---------------------4---4------|
A |-2---------------2---2-------2--|-4-----------------2---2-----4--|
E |---------------2---2------------|--------------------------------|

Verse
G |-----------------4---3---1------|--------------------------------|
D |-------------4---------------4--|-1-----------1------------------|
A |--------------------------------|-----------------1-------0------|
E |-2---------2--------------------|--------------------------------|

Ending Verse 1a
G |--------------------------------|--------------------------------|
D |--------------------------------|-------------------------4------|
A |--------------------------------|-2-----------2-2-4---4-4-----4--|
E |-4-----------4---2-----------2--|--------------------------------|

Ending Verse 1b
G |--------------------------------|--------------------------------|
D |--------------------------------|--------------------------------|
A |--------------------------------|-2-----------2---2-------9\-----|
E |-4-----------4---2-----------2--|--------------------------------|

Ending Verse 2
G |--------------------------------|--------------------------------|
D |--------------------------------|---------------4-----4---4---3--|
A |--------------------------------|-2-----------2---2-----2--------|
E |-4-----------4---2-----------2--|--------------------------------|

Other Verse
G |--------------------------------|--------------------------------|
D |-----------------4--------------|--------------------------------|
A |-------------------------4------|-2-----------2---4-----------4--|
E |-2-----------2------------------|--------------------------------|

G |--------------------------------|--------------------------------|
D |-------------4------------------|--------------------------------|
A |---------------4----------------|-2-----------2---1-----------1--|
E |-2---------2-----2-----------2--|--------------------------------|

G |--------------------------------|--------------------------------|
D |-1-----------1------------------|---------------/-8--------------|
A |-----------------4-----------4--|-2-----------2---------------1--|
E |--------------------------------|--------------------------------|

G |--------------------------------|--------------------------------|
D |--------------------------------|--------------------------------|
A |-2-----------2---4-----------4--|-2-----------2---1-----------1--|
E |--------------------------------|--------------------------------|

Instrumental
G |--------------------------------|--------------------------------|
D |-4-----------1------------------|--------------------------------|
A |-----------------4-----------4--|-2-----------2-/-9--------------|
E |--------------------------------|--------------------------------|

G |--------------------------------|--------------------------------|
D |--------------------------------|--------------------------------|
A |-2---------------------------2--|-4---------------4--------------|
E |--------------------------------|--------------------------------|


 


Order:
[00:00] Intro
[00:16] Verse | Ending 1a
[00:25] Verse | Ending 1b
[00:33] Other Verse | Instrumental
[00:59] Verse | Ending 2 4x
[01:33] Intro
[01:49] Verse | Ending 1a
[01:58] Verse | Ending 1b
[02:06] Other Verse | Instrumental
[02:31] Verse | Ending 2 4x
[03:21] Intro (Skip last two bars/End with an E)


Intro
G |-----------------------6-6------|--------------------------------|
D |-4~~-------------------------4--|--------------------------------|
A |--------------------------------|-5~~-------------------0-0---5--|
E |--------------------------------|--------------------------------|

G |--------------------------------|--------------------------------|
D |--------------------------------|--------------------------------|
A |-4~~----------------------------|-2~~----------------------------|
E |---------------------4~~--------|-----------------------------2--|

G |--------------------------------|--------------------------------|
D |--------------------------------|---------------------4---4------|
A |-2---------------2---2-------2--|-4-----------------2---2-----4--|
E |---------------2---2------------|--------------------------------|

G |--------------------------------|--------------------------------|
D |--------------------------------|---------------------4---4------|
A |-2---------------2---2-------2--|-4-----------------2---2-----4--|
E |---------------2---2------------|--------------------------------|

Verse
G |-----------------4---3---1------|--------------------------------|
D |-------------4---------------4--|-1-----------1------------------|
A |--------------------------------|-----------------1-------0------|
E |-2---------2--------------------|--------------------------------|

Ending Verse 1a
G |--------------------------------|--------------------------------|
D |--------------------------------|-------------------------4------|
A |--------------------------------|-2-----------2-2-4---4-4-----4--|
E |-4-----------4---2-----------2--|--------------------------------|

Ending Verse 1b
G |--------------------------------|--------------------------------|
D |--------------------------------|--------------------------------|
A |--------------------------------|-2-----------2---2-------9\-----|
E |-4-----------4---2-----------2--|--------------------------------|

Ending Verse 2
G |--------------------------------|--------------------------------|
D |--------------------------------|---------------4-----4---4---3--|
A |--------------------------------|-2-----------2---2-----2--------|
E |-4-----------4---2-----------2--|--------------------------------|

Other Verse
G |--------------------------------|--------------------------------|
D |-----------------4--------------|--------------------------------|
A |-------------------------4------|-2-----------2---4-----------4--|
E |-2-----------2------------------|--------------------------------|

G |--------------------------------|--------------------------------|
D |-------------4------------------|--------------------------------|
A |---------------4----------------|-2-----------2---1-----------1--|
E |-2---------2-----2-----------2--|--------------------------------|

G |--------------------------------|--------------------------------|
D |-1-----------1------------------|---------------/-8--------------|
A |-----------------4-----------4--|-2-----------2---------------1--|
E |--------------------------------|--------------------------------|

G |--------------------------------|--------------------------------|
D |--------------------------------|--------------------------------|
A |-2-----------2---4-----------4--|-2-----------2---1-----------1--|
E |--------------------------------|--------------------------------|

Instrumental
G |--------------------------------|--------------------------------|
D |-4-----------1------------------|--------------------------------|
A |-----------------4-----------4--|-2-----------2-/-9--------------|
E |--------------------------------|--------------------------------|

G |--------------------------------|--------------------------------|
D |--------------------------------|--------------------------------|
A |-2---------------------------2--|-4---------------4--------------|
E |--------------------------------|--------------------------------|

Order:
[00:00] Intro
[00:16] Verse | Ending 1a
[00:25] Verse | Ending 1b
[00:33] Other Verse | Instrumental
[00:59] Verse | Ending 2 4x
[01:33] Intro
[01:49] Verse | Ending 1a
[01:58] Verse | Ending 1b
[02:06] Other Verse | Instrumental
[02:31] Verse | Ending 2 4x
[03:21] Intro (Skip last two bars/End with an E)
comments
print report bad tab
4 comments total. Showing first comments.
0 reply
TimMobbs wrote on August 9 2008, 12:05 pm

very shoddy. Missing a lot of correct notes.

0 reply
TimMobbs wrote on August 13 2008, 08:08 pm

Intro: (0:00-0:17)

G|------6-6---|-----------|----------|---------|---------------|
D|4--------4--|-----------|----------|---------|---------------|
A|------------|5--------5-|-4--------|2--------|2-----2--2---3-|
E|------------|------5-5--|-------4b-|-------2-|-----2--2------|

G|---------------|--------------|----------------|
D|--------4-3h4--|--------------|--------4--3h4--|
A|-4-----2-4---4-|-2----2--2--3-|-4-----4-4----4-|
E|---------------|-----2--2-----|----------------|

----------------------------------------------------------------------------

First Verse - (0:17-0:50)

G|---------4-3----|------------|------------|---------------|
D|-------4----6-4-|------------|------------|--------4-3h4--|
A|------4---------|-6----6-----|------------|-2--22/4-4---4-|
E|-2--------------|--------6-5-|-4---4-2---2|---------------|

G|--------4-3-----|------------|------------|--------------|
D|-------4----6-4-|------------|------------|--------------|
A|------4---------|-6----6-----|------------|-2--2-2----9\-|
E|-2--------------|--------6-5-|-4---4-2---2|--------------|

G|-------------|------------|---------------|-8-----6----|
D|-------4-----|------------|--------4------|-9-----8----| (The bass chords
A|----------4--|-2--2--4---4|---------4-----|------------| are on the 1st
E|-2--2--------|------------|-2---2----2--2-|-7---7-6--6-| and 3rd beats)

G|-11------10---|-8-----15------|-8---9/10----|-8-----6---|
D|-13------11---|-9-----16------|-9---10/11---|-9-----8---|
A|--------------|---------------|-------------|-----------|
E|-11---11-9--9-|-7---7-14---14-|-7---8/9-----|-7---7-6---|

---------------------------------------------------------------------------

Instrumental fill (0:50-0:58)

G|-/11------10----|-8-----15------|-10-------|-11/10------|
D|----------11----|-9-----16------|-9--------|-10/11------|
A|-/13------------|---------------|----------|------------|
E|-/11---11-9---9-|-7---7/14---14-|-7--------|-8/9-----9--|

---------------------------------------------------------------------------

2nd Verse (0:58-1:32)

G|---------4-3-----|-----------|------------|------------------|
D|-------4-----6-4-|-----------|------------|-------4-3h4--4-3-|
A|------4----------|-6---6-----|------------|-4----4-4---4-----| x4
E|-2---------------|-------6-5-|-4---4-2--2-|------------------|

---------------------------------------------------------------------------

The next part of the song involves repeating the first minute and a half.
Therefore, repeat the intro, the 1st verse, the instrumental fill and the
second verse. When playing the second verse however, play the phrase 6
times instead of 4 like before.

The outro follows:

Outro (3:21-3:34/end)

G|------44---|----------|----------|----------|----------|
D|-6-------6-|----------|----------|----------|----------|
A|-----------|-5------5-|-4--------|-2--------|-2--------|
E|-----------|-----55---|-----2-2--|----------|----------|

-1 reply
Mcr14 wrote on September 8 2008, 08:51 am

Hey thanks to all those who have rated my tab. please keep commenting and rating my tabs :)

I want to post or [tab]
guest
You may want to rate the tab now too:
select rating
Please do not post tabs as comments. Select "correction" instead!