Oops, an error
Loading. Please wait.
We have Chord Pro version of Heaven Knows Im Miserable Now.
It's the closest thing you can get to the original song and it has interactive parts. Check out the tab »
×
30,516 views 228 this week
4 commentsread comments
1 2 3 4 5
x 10
add to favorites
×
Save as Personal and add changes to this tab that will be seen only by you. Learn more ›
×
You can save this tab as Personal to edit and correct it or add notes. All changes will be seen only by you. Learn more »
launch autoscroll
font size
0
reset
how to read this tab
guitar tuner
backing track
0:00
0:00
edit
Autoscroll
slow
fast
+/-
esc
set tempo
stop
Capo 2

[Intro] 
(For these first little barre chords, I like to add a little bit of that Jamaican 
style rake to the chords. The legend for the symbols is at the bottom)
e|--------7----------3------2~---0~------------|
B|--------9----------5------3~---2~------------|
G|--------8----------4------2~---2~------------|
D|--------9----------5------4~---2~------------|
A|--------7----------3------2~---0~------------|
E|-------(7)--------(3)------------------------|

Then (please listen to the song for the actual rhythm and timing) shuffle these with 
some groove to it like how Marr plays:
e|-----000-0-00-x-00---000-0-00-x-00---|
B|-----555-0-55-x-00/--777-0-77-x-00---|
G|-----444-4-44-x-44/--666-6-66-x-66---|     (x2)
D|-----333-3-33-x-33/--555-5-55-x-55---|
A|-------------------------------------|
E|-------------------------------------|

And right away to the VERSE (make your chords real chirpy)
e|--7--77--9--99-------9---9---------0-0-00--00--0---------|
B|--9--99--9--99------12---10---9----3/5-55--57--0---------|
G|--8--88--9--99-------9---9---------4/6-66--68--8---------|
D|--9--99--9--99------11---9---------5/7-77--79--9---------|       (x2)
A|--7--77--9--99-------9---9-------------------------------|
E|---------------------------------------------------------|

 IIIIIIIINNNN MYYYYY LIIIIIIFE.....
e|---7-77----------0-0-00--00--0----|
B|---9-99---7------3/5-55--57--0----|
G|---8-88----------4/6-66--68--8----|
D|---9-99----------5/7-77--79--9----|        (x2)
A|---7-77---------------------------|
E|----------------------------------|

TO PEOPLE WHO....(at this part, you really need to listen to the song and really be 
"feeling it". It is much to difficult to tab out otherwise)
e|--------------------------11--1112-xx-11-11----------------------|
B|---5/999-x-9-x-7-9-x-9-7--12--1212-xx-11-11---3/5-x-55-5/7-0-----|
G|---4/888-x-8-x-8-8-x-8-8--11--1111-xx-11-11---4/6-x-66-6/8-8-----|        (x2)
D|---5/999-x-9-x-9-9-x-9-9----------------------5/7-x-77-7/9-9-----|
A|-----------------------------------------------------------------|
E|-----------------------------------------------------------------|

(The little fill0
e|-------------------------------9--16~----16/17/18---18\----|
B|---999-9-x-7--9-x-7-5----------7--16~----16/17/18---18\----|
G|-------------------------------6--16~----16/17/18---18\----|
D|-----------------------------------------------------------|
A|-----------------------------------------------------------|
E|-----------------------------------------------------------|

TWO LOVAS ENTWINED.........
e|--------------0------------------0--------------0-----------0--------------|
B|----------------0-------------0-----------2--------2-----------0-----------|
G|--------9----------------4-------------4-----4-----------2-----------------|
D|-----9-----9------9----2---2--------4-----------------3--------------4-----|
A|--7------------------4--------------------------------------------2-----2--|
E|---------------------------------------------------------------------------|

e|---4/9-99---------|
B|---4/9-99-x-7-7---|
G|---4/9-99-x-8-8---|
D|---4/9-99-x-9-9---|
A|------------------|
E|------------------|

(Do this four times and back to the intro, play everything over once more but when you 
get to this last part, you play it six times, you then go back to the very first part with 
the barre chords but it goes like this:)
e|---7-----3-----7-----0~-----16~---|
B|---9-----5-----9-----2~-----16~---|
G|---8-----4-----8-----2~-----16~---|
D|---9-----5-----9-----2~-----------|
A|---7-----3-----7-----0~-----------|
E|----------------------------------|


************************************

| ~    Vibrato
| (n)  Ghost note
| x    Dead note
| /    Slide up
| \    Slide down

************************************
Suggest correction
Creating personal tab
Creating personal tab
You can edit any tab online and save it as your Personal.

You can edit, replace or remove any tab part or add personal notes – all changes will be seen only by you.

Personal tabs can be accessed anytime from any device, even offline.
Learn more »
comments
print report bad tab
4 comments total. Showing first comments.
0 reply
OrangeTrousers 104 Sep 18, 2013 06:34 AM

VERSE - two adjustments

|--7--77-------9--99--9---9---------0-0-00--00--0---------|
|--9--99--7(9)-9--99--12--10---9----3/5-55--57--0---------|
|--8--88-------9--99--9---9---------4/6-66--68--8---------|
|--9--99-------9--99--11--9---------5/7-77--79--9---------|
|--7--77-------9--99--9---9-------------------------------|
|---------------------------------------------------------|

|--7--77-------9--99--9---9---------0-0-00--0---0---------|
|--9--99--7(9)-9--99--12--10---9----3/5-55--5---0---------|
|--8--88-------9--99--9---9---------4/6-66--6---8---------|
|--9--99-------9--99--11--9---------5/7-77--7---9---------|
|--7--77-------9--99--9---9--------second time we play----|
|--------------------------------something different here-|

+2 reply
OrangeTrousers 104 Sep 18, 2013 06:40 AM

Oh and this is how I play the "TWO LOVAS INTWINED..." bit

|-----0------0----------0------0--------2-0----2-0-0------0-------4/9-99-x-7-7---|
|---5---5---5--5------5---5--5--------2------2----------5---5-----4/9-99-x-7-7---|
|-4-------4------6--6-------4-----4-2-------2-----2/4-4-----------4/9-99-x-8-8---|
|-----------------------------------------------------------------4/9-99-x-9-9---|
|--------------------------------------------------------------------------------|
|--------------------------------------------------------------------------------|

0 reply
OrangeTrousers 104 Sep 18, 2013 06:49 AM

Oh and sorry Im being a dick here
The little fill

|---------------------------------14~----14/15/16---14\----|
|---999-9-x-7---9-x-7-------------14~----14/15/16---14\----|
|-------------9-------9--6--4-----14~----14/15/16---14\----|
|---------------------------------------------------14\----|
|----------------------------------------------------------|
|----------------------------------------------------------|

I know you meant this; without the capo it is -16--16/17/18--

guest
You may want to rate the tab now too:
select rating
Wanna post a correction for this tab? Suggest correction