Oops, an error
Loading. Please wait.

I Started Something bass

2,579 views 6 this week
no commentswrite comment
1 2 3 4 5
x 3
add to favorites
×
Save as Personal and add changes to this tab that will be seen only by you. Learn more ›
×
You can save this tab as Personal to edit and correct it or add notes. All changes will be seen only by you. Learn more »
launch autoscroll
font size
0
reset
guitar tuner
edit
Autoscroll
slow
fast
+/-
esc
set tempo
stop
Author
I Started Something I Couldn't Finish 
The smiths

Intro
G |---------------------------------|
D |---------------------------------|
A |-------------------------7---5---|
E |---------------------0-----------|

Chorus
G |---------------------------------||   |---------------------------------|
D |---------------------------------||   |-0---0---0---0---2~~-----3~~-----|
A |-4-----2-----2---4-----2-----2---||   |---------------------------------|
E |---------4---------------4-------|| 2x|-------------------------3-------|

Break A                                Break B                            
G |---------------------------------| |---------------------------------| 
D |---------------------------------| |---------------------------------| 
A |-------------------------0---1---| |-------------------------0---1---| 
E |-2-----0---------2---2-----------| |-2--2--0---------2---2-----------| 

 Break C

G |---------------------------------|
D |-----------------4-------2---0---|
A |-------2-------------------------|
E |-2-------------------------------|

Verse                                  Verse Ending1
G |---------------------------------| |---------------------------------|
D |---------------------------------| |---------------------------------|
A |-2-----2-----0---2-----2-----0---| |-5-----5-0---2-------------------|
E |---------2---------------2-------| |-----------------0-------0---1---|

Verse Ending2 (With Fill)
G |---------------------------------|---------------------------------|
D |---------------------------------|---------------------------------|
A |-5-----5-0---2-------------------|-5h7-----5h7-----5h7-----5h7-----|
E |-----------------0-------0---0---|---------------------------------|

Order:
[00:04] Intro
[00:07] Chorus
[00:18] Break A
[00:21] Verse | Ending 1
[00:28] Break A,B
[00:35] Verse | Ending 2

[00:44] Chorus (I started something...)
[00:55] Break C
[00:58] Chorus (Hair brussed...) 
[01:09] Break A,B
[01:16] C,C ending1 (I grabbed you by...)
[01:23] Break A,B
[01:30] C,C ending2 (And I doused another venture)

[01:39] Chorus (I started somthing...)
[01:50] Break C
[01:53] Chorus (Hair brussed...)
[02:04] Break A,A,B
[02:15] C ending1
[02:23] Break A,A,B
[02:29] C ending2

[02:38] Chorus | Break C
Repeat until end
Suggest correction
Creating personal tab
Creating personal tab
You can edit any tab online and save it as your Personal.

You can edit, replace or remove any tab part or add personal notes – all changes will be seen only by you.

Personal tabs can be accessed anytime from any device, even offline.
Learn more »
Give kudos to tab author, rate the tab!
1 2 3 4 5
comments
print report bad tab
guest
You may want to rate the tab now too:
select rating
Wanna post a correction for this tab? Suggest correction