Oops, an error
Loading. Please wait.

Never Had No One Ever bass

1,900 views 3 this week
no commentswrite comment
1 2 3 4 5
2 more votes to show rating
add to favorites
×
Save as Personal and add changes to this tab that will be seen only by you. Learn more ›
×
You can save this tab as Personal to edit and correct it or add notes. All changes will be seen only by you. Learn more »
launch autoscroll
font size
0
reset
guitar tuner
backing track
0:00
0:00
edit
Autoscroll
slow
fast
+/-
esc
set tempo
stop
Author
Never Had No One Ever
The Smiths
Bass Tab
Bassist: Andy Rourke

192BPM, 3/4

Intro

|----5-----|---------|
|-5--------|---------|
|----------|---------|
|-------0--|-3----5--|

Verse

|--------|--------|--------|---------|------2--|-2-------|--------|--------|
|--------|-----2--|-5------|-4-------|---------|------2--|--------|-2------|
|--------|--------|--------|------3--|---------|---------|-5------|--------|
|-5------|--------|--------|---------|-5-------|---------|--------|--------|

|--------|-2-------|--------|---------|---------|-2-------|--------|--------|
|--------|------2--|-5------|-4-------|---------|------2--|--------|--------|
|--------|---------|--------|------3--|---------|---------|--------|--------|
|-5------|---------|--------|---------|-5----5--|---------|-1------|-3------|

|--------|-2-------|--------|---------|------2--|-------|--------|--------|
|--------|------2--|-5------|-4-------|---------|-------|--------|-2------|
|--------|---------|--------|------3--|---------|-------|-5------|--------|
|-5------|---------|--------|---------|-5-------|-------|--------|--------|

|--------|-2-------|--------|---------|--------|---2-----|--------|---------|
|--------|------2--|-5------|-4-------|--------|------2--|--------|---------|
|--------|---------|--------|------3--|--------|---------|--------|---------|
|-5------|---------|--------|---------|-5------|---------|-1------|-3----2--|

Chorus

|----------|----------|----------|----------|----------|----------|----------|--------|
|----------|----------|----------|----------|----------|----------|-------2--|-6------|
|-------3--|-------3--|-------3--|----------|-------2--|-------2--|----2-----|--------|
|-1--1-----|-1--1-----|-1--1-----|-1--1--1--|-0--0-----|-0--0-----|-0--------|--------|

Verse

|---------|-2-------|--------|---------|--------|-------|--------|--------|
|---------|------2--|-5------|-4-------|--------|-------|--------|-2------|
|---------|---------|--------|------3--|--------|-------|-5------|--------|
|-5----5--|---------|--------|---------|-5------|-------|--------|--------|

|--------|-2-------|--------|---------|---------|-2-------|--------|--------|
|--------|------2--|-5------|-4-------|---------|---------|--------|--------|
|--------|---------|--------|------3--|---------|---------|--------|--------|
|-5------|---------|--------|---------|-5----5--|------3--|-1------|-3------|

|--------|-2-------|--------|---------|------2--|-2-------|--------|--------|
|--------|------2--|-5------|-4-------|---------|------2--|--------|--------|
|--------|---------|--------|------3--|---------|---------|--------|--------|
|-5------|---------|--------|---------|-5-------|---------|-1------|-3------|

|--------|-2-------|--------|--------|--------|-------|--------|--------|
|--------|------2--|-5------|-4------|--------|-------|--------|--------|
|--------|---------|--------|--------|--------|-------|--------|--------|
|-5------|---------|--------|--------|-0------|-------|-1------|-3------|

|--------|-2-------|--------|---------|--------|---------|--------|---------|
|--------|------2--|-5------|-4-------|--------|---------|--------|---------|
|--------|---------|--------|------3--|--------|---------|--------|---------|
|-5------|---------|--------|---------|-5------|---0--3--|-5------|---5--5--|

Chorus

|---------|----------|----------|----------|---------|---------|------1--|-1--4--1--|
|---------|----------|----------|----------|---------|---------|-2-------|----------|
|---------|-------3--|----------|-------3--|-2----2--|-2----2--|---------|----------|
|-1----1--|-1--1-----|-1--1--1--|-1--1-----|---------|---------|---------|----------|

Verse

|---------|-2-------|--------|---------|------2--|-2------|--------|--------|
|---------|------2--|-5------|-4-------|---------|--------|--------|-2------|
|---------|---------|--------|------3--|---------|--------|-5------|--------|
|-5----5--|---------|--------|---------|-5-------|--------|--------|--------|

|------2--|-2-------|--------|---------|------2--|-2-------|--------|--------|
|---------|------2--|-5------|-4-------|---------|------2--|--------|--------|
|---------|---------|--------|------3--|---------|---------|--------|--------|
|-5-------|---------|--------|---------|-5-------|---------|-1------|-3------|

|--------|-2-------|--------|---------|------2--|-2-------|--------|--------|
|--------|------2--|-5------|-4-------|---------|------2--|--------|-2------|
|--------|---------|--------|------3--|---------|---------|-5------|--------|
|-5------|---------|--------|---------|-5-------|---------|--------|--------|

|--------|-2-------|--------|---------|------2--|-2-------|--------|---------|
|--------|------2--|-5------|-4-------|---------|---------|--------|---------|
|--------|---------|--------|------3--|---------|---------|--------|---------|
|-5------|---------|--------|---------|-5-------|------3--|-1------|-3----2--|

Chorus

|---------|---------|----------|--------|---------|---------|---------|-1-------|
|---------|---------|----------|--------|---------|---------|------2--|------2--|
|------3--|---------|-------3--|--------|------2--|------2--|---------|---------|
|-1-------|-1----0--|-1--1-----|-1------|-0-------|-0-------|-0-------|---------|

Verse

|--------|-------|--------|---------|--------|-------|--------|--------|
|--------|-------|-5------|-4-------|--------|-------|--------|-2------|
|--------|-------|--------|------3--|--------|-------|-5------|--------|
|-5------|-------|--------|---------|-5------|-------|--------|--------|

|--------|-------|--------|---------|--------|--------|--------|--------|
|--------|-------|-5------|-4-------|--------|--------|--------|--------|
|--------|-------|--------|------3--|--------|--------|--------|--------|
|-5------|-------|--------|---------|-5------|-----3--|-1------|-3------|

|--------|-------|--------|---------|--------|-------|--------|--------|
|--------|-------|-5------|-4-------|--------|-------|--------|-2------|
|--------|-------|--------|------3--|--------|-------|-5------|--------|
|-5------|-------|--------|---------|-5------|-------|--------|--------|

|--------|-------|--------|---------|--------|--------|--------|--------|
|--------|-------|-5------|-4-------|--------|--------|--------|--------|
|--------|-------|--------|------3--|--------|--------|--------|--------|
|-5------|-------|--------|---------|-5------|-----3--|-1------|-3------|

|--------|-------|--------|---------|--------|-------|--------|--------|
|--------|-------|-5------|-4-------|--------|-------|--------|--------|
|--------|-------|--------|------3--|--------|-------|--------|--------|
|-5------|-------|--------|---------|-5------|-------|-1------|-3------|

Chorus

|----------|----------|----------|----------|----------|--------|----------|-1-------|
|----------|----------|----------|----------|----------|--------|-------2--|------2--|
|-------3--|----------|-------3--|-------3--|-2--2-----|-2------|-2--2-----|---------|
|-1--1-----|-1--1--0--|-1--1-----|-1--1-----|-------0--|--------|----------|---------|

Verse

|---------|--------|--------|---------|--------|-------|--------|--------|
|---------|--------|--------|---------|--------|-------|--------|-2------|
|---------|--------|--------|---------|--------|-------|-5------|--------|
|-5--5----|-----0--|-3------|-2----0--|-5------|-------|--------|--------|

|---------|-2-------|--------|---------|------2--|-2------|--------|--------|
|---------|------2--|-5------|-4-------|---------|--------|--------|-2------|
|---------|---------|--------|------3--|---------|--------|-5------|--------|
|-5----5--|---------|--------|---------|-5-------|--------|--------|--------|

|--------|-2-------|--------|---------|--------|---------|--------|--------|
|--------|------2--|-5------|-4-------|--------|---------|--------|--------|
|--------|---------|--------|------3--|--------|---------|--------|--------|
|-5------|---------|--------|---------|-5------|-5----3--|-1------|-3------|

|--------|-2-------|--------|---------|------2--|-2------|--------|--------|
|--------|------2--|-5------|-4-------|---------|--------|--------|-2------|
|--------|---------|--------|------3--|---------|--------|-5------|--------|
|-5------|---------|--------|---------|-5-------|--------|--------|--------|

|--------|-2-------|--------|---------|------2--|-2------|--------|--------|
|--------|------2--|-5------|-4-------|---------|--------|--------|--------|
|--------|---------|--------|------3--|---------|--------|--------|--------|
|-5------|---------|--------|---------|-5-------|--------|-1------|-3------|

Chorus

|----------|----------|----------|----------|----------|----------|----------|-1-------|
|----------|----------|----------|----------|-------2--|----------|-------2--|------2--|
|-------3--|-------3--|-------3--|-------3--|-2--2-----|-2--2-----|-2--2-----|---------|
|-1--1-----|-1--1-----|-1--1-----|-1--1-----|----------|-------0--|----------|---------|

|---------|--------|--------|---------|------2--|-2-------|--------|--------*|
|---------|-----2--|-5------|-4-------|---------|------2--|--------|-2------*|
|---------|--------|--------|------3--|---------|---------|-5------|--------*|
|-5----5--|--------|--------|---------|-5-------|---------|--------|--------*| fade

            
            
Suggest correction
Creating personal tab
Creating personal tab
You can edit any tab online and save it as your Personal.

You can edit, replace or remove any tab part or add personal notes – all changes will be seen only by you.

Personal tabs can be accessed anytime from any device, even offline.
Learn more »
Give kudos to tab author, rate the tab!
1 2 3 4 5
comments
print report bad tab
guest
You may want to rate the tab now too:
select rating
Wanna post a correction for this tab? Suggest correction