Oops, an error
Loading. Please wait.

Paint A Vulgar Picture solo tab

3,058 views 9 this week
no commentswrite comment
1 2 3 4 5
x 3
add to favorites
×
Save as Personal and add changes to this tab that will be seen only by you. Learn more ›
×
You can save this tab as Personal to edit and correct it or add notes. All changes will be seen only by you. Learn more »
launch autoscroll
font size
0
reset
how to read this tab
guitar tuner
edit
Autoscroll
slow
fast
+/-
esc
set tempo
stop
-----------------------------------------------------------------------------|
Paint A Vulgar Picture - The Smiths
-----------------------------------------------------------------------------|

Band Name: The Smiths
Song Name: Paint A Vulgar Picture
Album Name: Strangeways, Here We Come (1987)
Track Number (thought I'd include it if you're bad with names): Track 8
Tabbed by: Andrew Cochran
Email: loobleasle@yahoo.com

Of course, this song is not my own, nor is it from a songbook or anything like that, it's 
my ear. Music is original Johnny Marr gold. I've been playing for a couple months, and 
wondered if I could take a successful stab at tabbing a Marr solo, seeing as they
aren't too flashy and whatnot. This is just a guideline to point you in the semi-
right direction on what I hear. If this is misleading to anyone, I appologize in advance,
I do not claim to be a professional, hell, I hardly even call myself half-way decent,
but I'm pretty sure this is the jist of it. Near the end, it's a little iffy, but
you're probably a better guitarist than I, so improvise if it sounds wrong. Feel
free to contact me to either give constructive criticism or compliments.
Hope this does someone good. Enjoy!


e|--------------------------------------------------------------------------|
B|-------7-8h7---------10/12-10-8p7--------------10-8-10-8-10-12-12-10-10---|
G|-7-7-9-------7-7-9-9--------------7-7-9-9-9/11----------------------------|
D|--------------------------------------------------------------------------|
A|--------------------------------------------------------------------------|
E|--------------------------------------------------------------------------|

                                                           let ring, slide both notes from 14 to 12
e|10-10---------------------------------------------------------------------------------------|
B|------7-8p7-------------12-10--------12-10-------------------------14-----------14\-12-12---|
G|------------9-9-------------------------------------11-------12-----------------------------|
D|------------------------------12------------11--12-----12/14----14--------14-14---\(12)-----|
A|--------------------------------------------------------------------------------------------|
E|--------------------------------------------------------------------------------------------|


e|-----------------------------------------------------------------------------------|
B|12-10--------------------------------------------------------10h11-------11h12-12--|
G|------------------------------14-12-14-12-14-16-16-14-14---------------------------|
D|------12-12---14-14-----14h16------------------------------------------------------|
A|-----------------------------------------------------------------------------------|
E|-----------------------------------------------------------------------------------|


That's basically what I gathered. I probably am wrong at parts, but for the most part I
think it's alright. Please feel free to contact me. Cheers.

"A-List, playlist, please them! please them! Sadly, this was your life."

- Paint A Vulgar Picture


| /  slide up
| \  slide down
| h  hammer-on
| p  pull-off
| ~  vibrato
| +  harmonic
| x  Mute note
============================================================================

            
            
Suggest correction
Creating personal tab
Creating personal tab
You can edit any tab online and save it as your Personal.

You can edit, replace or remove any tab part or add personal notes – all changes will be seen only by you.

Personal tabs can be accessed anytime from any device, even offline.
Learn more »
Give kudos to tab author, rate the tab!
1 2 3 4 5
comments
print report bad tab
guest
Wanna post a correction for this tab? Suggest correction