Oops, an error
Loading. Please wait.
We have an official Please Please Please Let Me Get What I Want tab made by UG professional guitarists. Check out the tab »
×

Please Please Please Let Me Get What I Want bass

145 views 12 this week
no commentswrite comment
1 2 3 4 5
2 more votes to show rating
add to favorites
×
Save as Personal and add changes to this tab that will be seen only by you. Learn more ›
×
You can save this tab as Personal to edit and correct it or add notes. All changes will be seen only by you. Learn more »
launch autoscroll
font size
0
reset
guitar tuner
backing track
0:00
0:00
edit
Autoscroll
slow
fast
+/-
esc
set tempo
stop
Artist: The Smiths
Song: Please Please Please Let Me Get What I Want
Tuning - Standard
Time - 4/4 65bpm
tabbed by electricbunny

[Verse 1]
G|--------------------------------|--------------------------------|
D|0-------------------------------|0-------0-----------------------|
A|----------------0-------0-----3-|----------------0-------0-------|
E|--------------------------------|--------------------------------|
 
G|--------------------------------|--------------------------------|
D|--------------------------------|--------------------------0-2---|
A|--------------------------------|0-------0-------0-------0-------|
E|2-------2-------3-------3-3---3-|--------------------------------|
 
[Chorus] 
G|--------------------------------|----2---------------------------|
D|--------------------------------|0-------------------------------|
A|------------5-------------2-4---|--------4-----------------------|
E|3-------3-------5-------5-------|----------------3-------3---3---|
 
G|--------------------------------|--------------------------------|
D|--------------------------------|------------4-----------4---4---|
A|----------------0-------0---0---|2-------4-5-----2-2-2-----------|
E|3-------3-----------------3-----|--------------------------------|

                                  [Verse 2]
G|--------------------------------|--------------------------------|
D|5-------5-5---------------------|0-------------------------------|
A|------------5---------------4---|----------------0-------0----3--|
E|----------------5---------5-----|--------------------------------|
 
G|--------------------------------|--------------------------------|
D|0-------0---2-------------------|--------------------------------|
A|----------------0-------0-------|--------------------------------|
E|--------------------------------|2-------2-------3-------3---3---|

                                  [Chorus]
G|--------------------------------|--------------------------------|
D|--------------------------0-2---|--------------------------------|
A|0-------0-------0-------0-------|------------5-------------2-4---|
E|--------------------------------|3-------3-------5-------5-------|
 
G|----2---------------------------|--------------------------------|
D|0-------------------------------|--------------------------------|
A|--------4-----------------------|----------------0-------0---0---|
E|----------------3-------3---2---|3-------3-----------------3-----|
 
G|--------------------------------|--------------------------------|
D|------------4-----------4---4---|5-------5-5---------------------|
A|2-------4-5-----2-5-2-----------|------------5---------------4---|
E|--------------------------------|----------------5-------5-5-----|

[Outro]  
G|--------------------------------|--------------------------------|
D|0-------0-0-2-------------------|--------------------------------|
A|----------------3-------3-2-0---|--------------------------2-4---|
E|--------------------------------|3-------3---3---5-------5-------|
 
G|--------------------------------|--------------------------------|
D|--------------------------------|--------------------------------|
A|5-------4-----------------------|----------------0-------0---0---|
E|----------------3-------3---3---|3---3---3---3-------------------|
 
G|--------------------------------|--------------------------------|
D|0-------0-0---------------------|----------0---------------------|
A|------------0---3-------3-2-0---|----------------0-------0-0-0---|
E|--------------------------------|2-------2-----------------------|
 
G|--------------------------------|--------------------------------|
D|----------4---------------------|--------------------------------|
A|2-------2---2---4-5-------------|--------------------------2-2---|
E|--------------------------------|3-------3---3---3-------3-------|
 
G|--------------------------------|
D|--------------------------------|
A|0-------------------------------|
E|--------------------------------|

            
            
Suggest correction
Creating personal tab
Creating personal tab
You can edit any tab online and save it as your Personal.

You can edit, replace or remove any tab part or add personal notes – all changes will be seen only by you.

Personal tabs can be accessed anytime from any device, even offline.
Learn more »
Give kudos to tab author, rate the tab!
1 2 3 4 5
comments
print report bad tab
guest
You may want to rate the tab now too:
select rating
Wanna post a correction for this tab? Suggest correction