Oops, an error
Loading. Please wait.

Pretty Girls Make Graves bass

version 1
version 1

Whole song

Interactive

7,051 views 15 this week
no commentswrite comment
1 2 3 4 5
x 6
add to favorites
×
Save as Personal and add changes to this tab that will be seen only by you. Learn more ›
×
You can save this tab as Personal to edit and correct it or add notes. All changes will be seen only by you. Learn more »
launch autoscroll
font size
0
reset
guitar tuner
backing track
0:00
0:00
edit
Autoscroll
slow
fast
+/-
esc
set tempo
stop
Author
Pretty Girls Make Graves
The Smiths  

Verse                                           Verse End (Is simply the same as first Verse part)
G |---4-------7---6-||   |---4---4---4---6-|   |---4-------7---6-|
D |-------4---------||   |-----------------|   |-------4---------|
A |-2-------5---0---||   |-2---2-------0---|   |-2-------5---0---|
E |-----2-----------||3x |---------3-------|   |-----2-----------|
                                                                         
Aah Part
G |---------4-----------------------|---------4-----------------------|
D |-----6-------4-------------------|-----6-------4-------------------|
A |-4-----4-------2-0-----------2---|-4-----4-------2-0---------------|     
E |---------------------------------|-----------------------------4---|

G |---------------------------------|
D |---------------------------------|
A |---------------------------------|     Build up
E |-2-2-2-2-2-2-2-2-2-2-2-2-2-2-2---| <-  volume

Outro
G |---------------------------------|
D |---------------------------2-4---|
A |---------------------------------|
E |-2-2-2-2-2-2-2-2-2-2-2-2-2-----2-|

Order:
[00:07] Verse 6x | Verse End
[00:37] Aah Part
[00:50] Verse 4x | Verse End
[01:26] Aah Part
[01:40] Verse 4x
[02:17] Aah Part | Verse End
[02:29] Outro until fade

            
            
Suggest correction
Creating personal tab
Creating personal tab
You can edit any tab online and save it as your Personal.

You can edit, replace or remove any tab part or add personal notes – all changes will be seen only by you.

Personal tabs can be accessed anytime from any device, even offline.
Learn more »
comments
print report bad tab
guest
You may want to rate the tab now too:
select rating
Wanna post a correction for this tab? Suggest correction