Oops, an error
Loading. Please wait.

Rusholme Ruffians bass

14,976 views 27 this week
3 commentsread comments
1 2 3 4 5
x 11
add to favorites
×
Save as Personal and add changes to this tab that will be seen only by you. Learn more ›
×
You can save this tab as Personal to edit and correct it or add notes. All changes will be seen only by you. Learn more »
launch autoscroll
font size
0
reset
guitar tuner
edit
Autoscroll
slow
fast
+/-
esc
set tempo
stop
-----------------------------------------------------------------------------
			     RUSHOLME RUFFIANS - The Smiths
-----------------------------------------------------------------------------

Tabbed By : Andy Parkinson
e-mail: fourstringpunk182@hotmail.com

Tuning:Eb, Ab, Db, Gb

Really fun bassline here from Andy Rourke. You may find it a bit tricky to get down at 
but when you've got it down it'S really fun to play. It's a lot easier then it looks.

INTRO
G|-------2-2-3-4-----------4-2-x-----------2-2-3-4--------------------------|
D|---2/4---------------2/4-------x-----2/4----------------------------------|
A|-5-------------2-4-5-------------0-5-------------2-4---4-7-----6-5--------|
E|-----------------------------------------------------5-----5-4-----3------|

VERSE A
G|-------2-2-3-4-----------4-2h4------------4-2-3-4-------------------------|
D|---2/4---------------2/4-------x-----2/4----------------------------------|
A|-5-------------2-4-5-------------0-5-------------2-4---4-7-----6-5--------|
E|-----------------------------------------------------5-----5-4-----3------|

VERSE B
G|--------------------------------------------------------------------------|
D|--------------------------------------------------------------------------|
A|-4/5-5-5-5-5-x-x-2-0-2-(repeat 3 times)---4-7-----6-5---------------------|
E|----------------------------------------5-----5-4-----3--------------------|

ORDER
INTRO x 1
A x 3
B x 1
A x 1
B x 1
A x 2
B x 1
A x 1
B x 1
A x 2
B x 1
A x 4
B x 1
A x 2
B x 1
A x 2
B x 1
A x 3
B x 1


| /  slide up
| h  hammer-on
| x  Mute note
===============================================================================
Suggest correction
Creating personal tab
Creating personal tab
You can edit any tab online and save it as your Personal.

You can edit, replace or remove any tab part or add personal notes – all changes will be seen only by you.

Personal tabs can be accessed anytime from any device, even offline.
Learn more »
comments
print report bad tab
3 comments total.
+1 reply
emery01 671 Sep 23, 2007 06:22 PM

Very nice tab.

I always have this bass line in my head after listening to Meat is Murder.

Well done bud.

+1 reply
Underexperiment 10 Oct 16, 2009 08:55 AM

Awesome bass tab! Andy is the man!!! The bassline makes the song!!

+1 reply
swave75 382 Nov 18, 2012 07:31 AM

Andy Rourke is a very underrated bass player. Doesn't get much credit for the Smiths sound. Too bad he settled out of court only to go bankrupt anyway. Great tab!

guest
You may want to rate the tab now too:
select rating
Wanna post a correction for this tab? Suggest correction