Oops, an error
Loading. Please wait.

Some Girls Are Bigger Than Others Tab

version 1
version 1

Whole song

Interactive

71,503 views 165 this week
2 commentsread comments
1 2 3 4 5
x 17
add to favorites
launch autoscroll
font size
0
reset
how to read this tab
guitar tuner
×
Best way to learn
"Some Girls Are Bigger Than Others"
Autoscroll
slow
fast
+/-
esc
set tempo
stop
Capo
4th fret
THE SMITHS
SOME GIRLS ARE BIGGER THAN OTHERS
=================================

Music by Johnny Marr.
Based on the Brixton '86 concert.
Live version: capo 4th fret.
Just the basic pattern, feel free to improvise around it.

[Whole song]
e|-----0-----------|---0-------------|---------0-------|-------0---------|
B|---------0-------|-------0---------|-----4-----------|---4-------4-----|
G|-----------------|-----------4---4s|-6-------------0-|---------------2s|
D|---6---------6s4-|-----------------|---6---6---6-6---|-4---4---4---4---|
A|-4-----4---4-----|-2---2---2---2---|-----------------|-----------------|
E|-----------------|-----------------|-----------------|-----------------|

e|---------0-------|-------4---------|  ---4-------------|-----------------  |
B|-----4-------4---|-----------4-----|  -------5p4-------|---5-----7-------  |
G|-4-------------4-|-----4---------0-|o -----------4---6-|-------------8--- o|
D|---6---6---6-----|---6-----6---6---|o ---------------7-|-------9---9---9- o|
A|-----------------|-----------------|  -4---------------|-----------------  |
E|-----------------|-----------------|  -----------------|-----------------  |

End of chorus: [022100]
 

************************************

| p  Pull-off
| s  Slide
| oo Reprise  

************************************
Suggest correction
comments
print report bad tab
2 comments total.
+1 reply
Beeswax90 40 Feb 06, 2013 05:55 AM

The last notes are wrong this sound correct to me ?

e|---------0-------|-------4---------| ---4-------------|-----------------0--|
B|-----4-------4---|-----------4-----| -------5p4-------|---5--5--5s7-----0--|
G|-4-------------4-|-----4---------0-|o -----------4---6-|-------------9---1--|
D|---6---6---6-----|---6-----6---6---|o ---------------7-|-----7-----------2--|
A|-----------------|-----------------| -4---------------|-----------------2--|
E|-----------------|-----------------| -----------------|-----------------0--|

+1 reply
Beeswax90 40 Feb 06, 2013 05:58 AM

e|---------0-------|-------4---------| ---4--------------|-----------------0--|
B|-----4-------4---|-----------4-----| -------5p4--------|---5--5--5s7-----0--|
G|-4-------------4-|-----4---------0-|o -----------4---6-|-------------9---1--|
D|---6---6---6-----|---6-----6---6---|o ---------------7-|-----7-----------2--|
A|-----------------|-----------------| -4----------------|-----------------2--|
E|-----------------|-----------------| ------------------|-----------------0--|

Edit*

guest
You may want to rate the tab now too:
select rating
Wanna post a correction for this tab? Suggest correction