Oops, an error
Loading. Please wait.

Some Girls Are Bigger Than Others tab

version 5
version 5

Whole song

Interactive

5,393 views 99 this week
2 commentsread comments
1 2 3 4 5
x 5
add to favorites
×
Save as Personal and add changes to this tab that will be seen only by you. Learn more ›
×
You can save this tab as Personal to edit and correct it or add notes. All changes will be seen only by you. Learn more »
launch autoscroll
font size
0
reset
how to read this tab
guitar tuner
backing track
0:00
0:00
edit
Autoscroll
slow
fast
+/-
esc
set tempo
stop
Some Girls Are Bigger Than Others - The Smiths
Live Version= Capo 4th
Tuning: Standard

Part I
e|-----0----------0------------------0-------------0-----------|
B|--------0-----------0----------4-------4-----4-------4-------|
G|----------6-6\4---------4/6--------------------2---2---------|
D|---6--6-----6\4-------4----------6---6---6\4-----------4/6---|
A|-4----------------2----------0-------------------------------|
E|-------------------------------------------------------------|

Part II
e|-------0-------4-----------4---|
B|-----4---4-------4-------4-----|
G|-4---------4-------4---4-------|
D|---6---------6-------6---------|
A|-------------------------------|
E|-------------------------------|

Part III
e|-----4-----------|
B|---------5p4-----|
G|-------------4---|
D|---6---6---------|
A|-4---------------|
E|-----------------|

Part IV
e|------------------------------|
B|--------5-------7---7---7h9---|
G|------6-------8---8-----------|
D|-6/7-----7/9----------9-------|
A|------------------------------|
E|------------------------------|

E7
e|-7---|
B|-9---|
G|-7---|
D|-9---|
A|-7---|
E|-----|

Part I
Part II
Part III
Part IV
Part I
Part II
Part III
Part IV
Part IV
Part IV
E7

************************************

| /   slide up
| \   slide down
| h   hammer-on
| p   pull-off

************************************
Suggest correction
Creating personal tab
Creating personal tab
You can edit any tab online and save it as your Personal.

You can edit, replace or remove any tab part or add personal notes – all changes will be seen only by you.

Personal tabs can be accessed anytime from any device, even offline.
Learn more »
comments
print report bad tab
2 comments total.
0 reply
iommi600 4,801 Nov 05, 2015 03:47 PM

I believe that's an E, not an E7. Otherwise, perfect work. 5 stars.

0 reply
SuperHans30 139 Apr 29, 2016 08:15 AM

I think with the capo, part 4 doesn't sound quite right. I would play without the capo for all of it.

guest
You may want to rate the tab now too:
select rating
Wanna post a correction for this tab? Suggest correction