Oops, an error
Loading. Please wait.

Stop Me If You Think Youve Heard This One Before Bass Tab

version 3
version 3

Whole song

  • More Precise and Complete tab.
  • The other versions all seemed wrong so it's based ... Show more

Interactive

13 views 1 this week
no commentswrite comment
1 2 3 4 5
2 more votes to show rating
add to favorites
launch autoscroll
font size
0
reset
guitar tuner
Autoscroll
slow
fast
+/-
esc
set tempo
stop
Help us to improve Ultimate-Guitar.com Take our survey!
×
Author
Difficulty
intermediate
About this tab version
The other versions all seemed wrong so it's based this tab off of the isolated bass track of the song. Was this info helpful? Yes No
[Intro]

G|----5---------12---------12-----------------------------------------------|
D|------------------------------------7--------7---------9------------------|
A|-3--------10--------------------8--------9--------10----------------------|
E|--------------------11----------------------------------------------------|

G|----5---------12---------12-----------------------------------------------|
D|------------------------------------7--------7----------------------------|
A|-3--------10--------------------8--------9--------10-10-10-10-10-10-10-10-|
E|--------------------11----------------------------------------------------|

[Verse/Chorus] x2

G|-----5---5----------------------------------------------------------------|
D|---------------------5---5-------1-------1-----------3---3----------------|
A|-1/3---3-----3-5-----------------------1-------1--------------------------|
E|-------------------3---3-------3-------------------1---1------------------|

G|-----5---5----------------------------------------------------------------|
D|---------------------5---5-------1-------1-----------3---3----------------|
A|-1/3---3-----3-5-----------------------1-------1--------------------------|
E|-------------------3---3-------3-------------------1---1------------------|

[Bridge]

G|---------------------------------------------5----------------------------|
D|-------------6---------------------------5--------------------------------|
A|---------6---------------------3------------------------------------------|
E|-4------------------------------------------------------------------------|

G|--------------------------------------------------------------------------|
D|-------------6------------------------------------------------------------|
A|---------6---------------------1-1---1-1-------------------1--------------|
E|-4-----------------------------------------1---3-3---3-3------------------|

[Verse/Chorus] x2

G|-----5---5----------------------------------------------------------------|
D|---------------------5---5-------1-------1-----------3---3----------------|
A|-1/3---3-----3-5-----------------------1-------1--------------------------|
E|-------------------3---3-------3-------------------1---1------------------|

G|-----5---5----------------------------------------------------------------|
D|---------------------5---5-------1-------1-----------3---3----------------|
A|-1/3---3-----3-5-----------------------1-------1--------------------------|
E|-------------------3---3-------3-------------------1---1------------------|

[Bridge]

G|---------------------------------------------5----------------------------|
D|-------------6---------------------------5--------------------------------|
A|---------6---------------------3------------------------------------------|
E|-4------------------------------------------------------------------------|

G|--------------------------------------------------------------------------|
D|-------------6------------------------------------------------------------|
A|---------6---------------------1-1---1-1-------------------1--------------|
E|-4-----------------------------------------1---3-3---3-3------------------|

[Verse/Chorus] x2

G|-----5---5----------------------------------------------------------------|
D|---------------------5---5-------1-------1-----------3---3----------------|
A|-1/3---3-----3-5-----------------------1-------1--------------------------|
E|-------------------3---3-------3-------------------1---1------------------|

G|-----5---5----------------------------------------------------------------|
D|---------------------5---5-------1-------1-----------3---3----------------|
A|-1/3---3-----3-5-----------------------1-------1--------------------------|
E|-------------------3---3-------3-------------------1---1------------------|

[Bridge]

G|---------------------------------------------5----------------------------|
D|-------------6---------------------------5--------------------------------|
A|---------6---------------------3------------------------------------------|
E|-4------------------------------------------------------------------------|

G|--------------------------------------------------------------------------|
D|-------------6------------------------------------------------------------|
A|---------6---------------------1-1---1-1-------------------1--------------|
E|-4-----------------------------------------1---3-3---3-3------------------|

[Verse/Chorus] x2

G|-----5---5----------------------------------------------------------------|
D|---------------------5---5-------1-------1-----------3---3----------------|
A|-1/3---3-----3-5-----------------------1-------1--------------------------|
E|-------------------3---3-------3-------------------1---1------------------|

G|-----5---5----------------------------------------------------------------|
D|---------------------5---5-------1-------1-----------3---3----------------|
A|-1/3---3-----3-5-----------------------1-------1--------------------------|
E|-------------------3---3-------3-------------------1---1------------------|

[Bridge]

G|---------------------------------------------5----------------------------|
D|-------------6---------------------------5--------------------------------|
A|---------6---------------------3------------------------------------------|
E|-4------------------------------------------------------------------------|

G|--------------------------------------------------------------------------|
D|-------------6------------------------------------------------------------|
A|---------6---------------------1-1---1-1-------------------1--------------|
E|-4-----------------------------------------1---3-3---3-3------------------|

[Verse/Chorus] x4

G|-----5---5----------------------------------------------------------------|
D|---------------------5---5-------1-------1-----------3---3----------------|
A|-1/3---3-----3-5-----------------------1-------1--------------------------|
E|-------------------3---3-------3-------------------1---1------------------|

G|-----5---5----------------------------------------------------------------|
D|---------------------5---5-------1-------1-----------3---3----------------|
A|-1/3---3-----3-5-----------------------1-------1--------------------------|
E|-------------------3---3-------3-------------------1---1------------------|

[Outro]

G|----5---------12---------12-----------------------------------------------|
D|------------------------------------7--------7---------9------------------|
A|-3--------10--------------------8--------9--------10---------10-----------|
E|--------------------11----------------------------------------------------|


Song order:
Intro
Verse/Chorus x2
Bridge
Verse/Chorus x2
Bridge
Verse/Chorus x2
Bridge
Verse/Chorus x2
Bridge
Verse/Chorus x4
Outro
Suggest correction
Give kudos to tab author, rate the tab!
1 2 3 4 5
comments
print report bad tab
guest
You may want to rate the tab now too:
select rating
Wanna post a correction for this tab? Suggest correction