Oops, an error
Loading. Please wait.

The Headmaster Ritual bass

version 1
version 1

Whole song

Interactive

13,084 views 54 this week
2 commentsread comments
1 2 3 4 5
x 5
add to favorites
×
Save as Personal and add changes to this tab that will be seen only by you. Learn more ›
×
You can save this tab as Personal to edit and correct it or add notes. All changes will be seen only by you. Learn more »
launch autoscroll
font size
0
reset
guitar tuner
backing track
0:00
0:00
edit
Autoscroll
slow
fast
+/-
esc
set tempo
stop
Author
The Headmaster Ritual

00:00] Chorus
G |---------------------------------|---------------------------------|
D |-------------5---2-2---2---------|-------------5---2-2---2---------|
A |-3-3-3-3---------------------2-3-|---3-3-3---------------------2-3-|
E |---------2-3---------------------|---------2-3---------------------|

G |----------------------\9---7-----|---------------------------------|
D |---------------------------------|-----------------------------5---|
A |---3-3-3-2-3-5---5-5-5-----------|-----------------3-3-3-3---------|
E |-----------------------------2-3-|---3---3-3-3-------------2-3-----|

[00:19] Verse A
G |---------------------------------||  |---------------------------------|
D |-2---------------2---------4-----||  |---------------------------------|
A |-------2-5-2---------2-5-------5-||  |-3---3---3-3---------------------|
E |-------------5-3-----------------||2x|-------------2-3---2-3-2-3-2-3---|

[00:29] Verse A 3x | Verse B | Verse A

[00:45] Verse C (Vocals Enter)
G |---------------------------------|---------------------------------|
D |-------------2-------------------|-2-----2-2-2---------------------|
A |-0-------0-4---2---2---2-5-2-5---|---------------4---4-4-4-4-4-2---|
E |---------------------------------|-------------------------------4-|

G |---------------------------------|---------------------------------|
D |-------------2-------------------|-2---------------2---------4-----|
A |-0-------0-4---2---2---2-5-2-5---|-------2-5-2---------2-5-------5-|
E |---------------------------------|-------------5-3-----------------|

[00:57] Verse D
G |---------------------------------|---------------------------------|
D |---------------------------------|---------------2-----------------|
A |-2---------2-2---2---2-----2---2-|-0-----0-0-2-4-------4-----4-2---|
E |-------4-2-------------4-2-------|-------------------------------4-|

G |---------------------------------|---------------------------------|
D |---------------------------------|---------------------------------|
A |-2---------2-2---2---2-----2---2-|---------------------6-------2-3-|
E |-------4-2-------------4-2-------|-4---4---4-4---4---4-----4-4-----|

[01:10] Verse E (Play 2 times with different endings)
G |--------/8---6-4-----------4-----|---------------------------------|
D |-----------------------4h6---6-4-|---------6-6-------------2-------|
A |-4-------------------------------|-------6---------------------4---|
E |---------------------------------|-4-----------4-5-------4---------|

G |---------------------------------|
D |---------6-6---2---2-------------|
A |-------6---------------4-2---2-4-|
E |-4-------------------------------|

[01:19] Verse E Ending 1               [01:32] Verse Ending 2
G |---------------------------------| |---------------------------------|
D |---------------------------------| |---------------------------------|
A |---------4-7---6-----------------| |---------4-7---------------------|
E |-4-----4-----------4-5-4-5---5---| |-5-----5-------4~~---------------|

[01:35] Verse F (I wanna go home...)
G |---------------------------------|-----------------|
D |---------------------------------|-----------------|
A |-------------------------4---7---|-----------------|
E |-5-------5-5---5--(5)--5---------|-4-----4-4---4---|

Order:
[00:00] Chorus | Rest
[00:19] Verse A 2x
[00:26] Verse B
[00:29] Verse A 3x
[00:38] Verse B
[00:42] Verse A
[00:45] Verse C,A (Vocals Enter)
[00:57] Verse D (Sir leads the troops)
[01:10] Verse E + End 1 (I wanna go Home)
[01:23] Verse E + End 2 (Midweek on...)
[01:35] Verse F (I wanna go home)
[01:40] Chorus 3x (Ahlalalala...)
[02:14] Rest

[02:21] Verse A 2x
[02:28] Verse B
[02:31] Verse A
[02:35] Verse C,A (Vocals Enter)
[02:47] Verse D (Sir leads the troops)
[03:00] Verse E + End 1 (I wanna go Home)
[03:12] Verse E + End 2 (Please...)
[03:25] Verse F (I want to go home)
[03:30] Chorus 5x or more... (Ahlalalala...)

            
            
Suggest correction
Creating personal tab
Creating personal tab
You can edit any tab online and save it as your Personal.

You can edit, replace or remove any tab part or add personal notes – all changes will be seen only by you.

Personal tabs can be accessed anytime from any device, even offline.
Learn more »
comments
print report bad tab
2 comments total.
0 reply
Eddie RHCP 82 Feb 20, 2011 03:12 PM

Love this bassline, nice tab

0 reply
swave75 382 Nov 22, 2012 02:23 PM

Good job! Well done!

guest
You may want to rate the tab now too:
select rating
Wanna post a correction for this tab? Suggest correction