Oops, an error
Loading. Please wait.
We have an official There Is A Light That Never Goes Out tab made by UG professional guitarists. Check out the tab »
×

There Is A Light That Never Goes Out bass

71,027 views 234 this week
7 commentsread comments
1 2 3 4 5
x 36
add to favorites
×
Save as Personal and add changes to this tab that will be seen only by you. Learn more ›
×
You can save this tab as Personal to edit and correct it or add notes. All changes will be seen only by you. Learn more »
launch autoscroll
font size
0
reset
guitar tuner
backing track
0:00
0:00
edit
Autoscroll
slow
fast
+/-
esc
set tempo
stop
Author
Unregistered
group: The Smiths
song:  There is a light that never goes out
album: best of (part 2)

 [Intro]           [Riff 1]
G|-----------------|------------------------------------------------------|
D|-4---------------|---------------------------------------2--------------|
A|---0-0-0-0-2-2-2-|-4-4---2---2-4-4---2-2---2-0-0-0-0-------2-4-2--2---2-|
E|-----------------|-----4---4-------4-----4-----------4-2------------4---|


 [Transition]      [Riff 2]                                           *
G|-----------------|-----------------------------------------------------|
D|-4---------------|-2---2------------------------------------------1-2--|
A|---0-0-0-0-2-2-2-|---2---2-4-4---4---0-0-0-0-0-0-0-2-4--2-2-2-2-4------|
E|-----------------|-------------4---4-----------------------------------|

                    *
                  G|----------------------------4-------------------------|
                  D|--2-2-----------------4-4/6---6\----------------------|
                  A|------4-2-0-0-0-0-------------------------------------|
                  E|------------------4-2---------------------------------|


************************************

| /  Slide up
| \  Slide down

************************************

            
            
Suggest correction
Creating personal tab
Creating personal tab
You can edit any tab online and save it as your Personal.

You can edit, replace or remove any tab part or add personal notes – all changes will be seen only by you.

Personal tabs can be accessed anytime from any device, even offline.
Learn more »
comments
print report bad tab
7 comments total. Showing first comments.
0 reply
B-wiZe 90 Mar 27, 2004 07:00 PM

yay

0 reply
bassplayer496 347 Nov 15, 2006 07:24 PM

Great job. Great song.
~Love, Dallas~

0 reply
TimMobbs 137 Jul 04, 2008 11:28 AM

Perfect, thankyou :)

guest
Wanna post a correction for this tab? Suggest correction