Oops, an error
Loading. Please wait.
We have Chord Pro version of There Is A Light That Never Goes Out.
It's the closest thing you can get to the original song and it has interactive parts. Check out the tab »
×
13,311 views 15 this week
1 commentread comment
1 2 3 4 5
x 4
add to favorites
×
Save as Personal and add changes to this tab that will be seen only by you. Learn more ›
×
You can save this tab as Personal to edit and correct it or add notes. All changes will be seen only by you. Learn more »
launch autoscroll
font size
0
reset
guitar tuner
backing track
0:00
0:00
edit
Autoscroll
slow
fast
+/-
esc
set tempo
stop
Author
Difficulty
-----------------------------------------------------------------------------
	       There is a Light That Never Goes Out - Smiths
-----------------------------------------------------------------------------

Tabbed By : AJSLAMA
e-mail: ajslama@gmail.com

Tuning:EADG

Intro/prechorus:
G|-------------|
D|4------------|
A|--0-0-0-0-2-2|
E|-------------|


Verse:
G|------------------------------------------------------|
D|----------------------------------------2-------------| 8x
A|4-4---2-2---4-4---2---2---0-0-0-0-----2---2-4-2---2h3-|
E|----4-----4-----4---4---4---------4-2-----------4-----|


Chorus:
G|--------------------------------------------------------------4--------|
D|2-2-2----------------------------------1-2-2222222---------4h6-6p4-4h6-| 2x
A|-2-2-2-4-4-4-000000000000-2-4-2-2-2-2-4-----------00000000--------7----|
E|--------4-4-4----------------------------------------------------------|


| h  hammer-on
| p  pull-off
=============================================================================
Suggest correction
Creating personal tab
Creating personal tab
You can edit any tab online and save it as your Personal.

You can edit, replace or remove any tab part or add personal notes – all changes will be seen only by you.

Personal tabs can be accessed anytime from any device, even offline.
Learn more »
comments
print report bad tab
1 comment total.
0 reply
luciusczarnekke 10 May 25, 2016 03:53 PM

the tab lacks any details on rhythm and the pitches are blatantly incorrect.

guest
You may want to rate the tab now too:
select rating
Wanna post a correction for this tab? Suggest correction