Oops, an error
Loading. Please wait.

This Charming Man Tab

version 1
version 1

Whole song

Interactive

Video

539,798 views 1,120 this week
32 commentsread comments
1 2 3 4 5
excellent!
x 117
add to favorites
launch autoscroll
font size
0
reset
how to read this tab
guitar tuner
Tab Pro tools
  • play this tab
  • loop segment
  • change instrument
  • show fretboard
  • metronome
×
Best way to learn
"This Charming Man"
Autoscroll
slow
fast
+/-
esc
set tempo
stop
[Intro]

e|--9--9--7-7--10--9---7--7/9-----12-12------9--------------|
B|-10-10--9-9--10--10--9--9/10-10----------9----12----------|
G|----------------------------------11--------9-------------|
D|----------------------------------------------------------|
A|----------------------------------------------------------|
E|----------------------------------------------------------|

e|--------------9--------------------------------------------------|
B|--------10---------10--12--------10-------10/12-12-12-12---------|
G|--11-11----11---11--------11--11----11-11-11/13-13-13-13---------| 
D|-----------------------------------------------------------------| 
A|-----------------------------------------------------------------| 
E|-----------------------------------------------------------------|

e|-7/9---9--9-7-7-10-9--7-7/9-----12--12--12------------|
B|-9/10-10-10-9-9-10-10-9-9/10-10-----------------------|
G|-------------------------------------11---------------|
D|------------------------------------------------------|
A|------------------------------------------------------|
E|------------------------------------------------------|


[Verse]

e|--------------9--------------------------------------------------|
B|--------10---------10--12--------10-------10/12-12-12-12---------|
G|--11-11----11---11--------11--11----11-11-11/13-13-13-13---------| 
D|-----------------------------------------------------------------| 
A|-----------------------------------------------------------------| 
E|-----------------------------------------------------------------|
                                                                      x5
e|-----------------------------------------------------------------|
B|-----5-----5-5----7--5-----5-----9--9-9--5--7--------------------| 
G|--6------------6--------6----------------------------------------| 
D|-------7---------------------7-----------------------------------| 
A|-----------------------------------------------------------------|
E|-----------------------------------------------------------------|

e|--------------9--------------------------------------------------|
B|--------10---------10--12--------10-------10/12-12-12-12---------|
G|--11-11----11---11--------11--11----11-11-11/13-13-13-13---------| 
D|-----------------------------------------------------------------| 
A|-----------------------------------------------------------------| 
E|-----------------------------------------------------------------|


[Chorus]

e|-----------------------------9---------9-------------11--------12-|
B|-------10---------9-------10---10--------9--------10---------9----|
G|----11----11----9---9--11------------9---------11----------9------|
D|-12----------11--------------------9--------12----------11--------|
A|------------------------------------------------------------------|
E|------------------------------------------------------------------|
                                                                           x2
e|-7/9---9--9-7-7-10-9--7-7/9-----12--12--12------------|
B|-9/10-10-10-9-9-10-10-9-9/10-10-----------------------|
G|-------------------------------------11---------------|
D|------------------------------------------------------|
A|------------------------------------------------------|
E|------------------------------------------------------|


[Verse]

e|--------------9--------------------------------------------------|
B|--------10---------10--12--------10-------10/12-12-12-12---------|
G|--11-11----11---11--------11--11----11-11-11/13-13-13-13---------| 
D|-----------------------------------------------------------------| 
A|-----------------------------------------------------------------| 
E|-----------------------------------------------------------------|
                                                                      x5
e|-----------------------------------------------------------------|
B|-----5-----5-5----7--5-----5-----9--9-9--5--7--------------------| 
G|--6------------6--------6----------------------------------------| 
D|-------7---------------------7-----------------------------------| 
A|-----------------------------------------------------------------|
E|-----------------------------------------------------------------|

e|--------------9--------------------------------------------------|
B|--------10---------10--12--------10-------10/12-12-12-12---------|
G|--11-11----11---11--------11--11----11-11-11/13-13-13-13---------| 
D|-----------------------------------------------------------------| 
A|-----------------------------------------------------------------| 
E|-----------------------------------------------------------------|


[Outro]

e|-----------------------------9---------9-------------11--------12-|
B|-------10---------9-------10---10--------9--------10---------9----|
G|----11----11----9---9--11------------9---------11----------9------|
D|-12----------11--------------------9--------12----------11--------|
A|------------------------------------------------------------------|
E|------------------------------------------------------------------|
                                                                           x4
e|-7/9---9--9-7-7-10-9--7-7/9-----12--12--12------------|
B|-9/10-10-10-9-9-10-10-9-9/10-10-----------------------|
G|-------------------------------------11---------------|
D|------------------------------------------------------|
A|------------------------------------------------------|
E|------------------------------------------------------|


*********************
|/         Slide up
*********************
comments
print report bad tab
32 comments total. Showing first comments. show 1 bad comment
+1 reply
johnn88 wrote on April 28 2002, 12:00 am

this is not the john that tabbed the first charming man

+3 reply
guitarzan23 wrote on November 5 2006, 02:19 pm

ruddy bloody fantastic

I want to post or [tab]
guest
You may want to rate the tab now too:
select rating
Please do not post tabs as comments. Select "correction" instead!