Oops, an error
Loading. Please wait.
We have an official This Charming Man tab made by UG professional guitarists. Check out the tab »
×
19,221 views 108 this week
1 commentread comment
1 2 3 4 5
x 7
add to favorites
×
Save as Personal and add changes to this tab that will be seen only by you. Learn more ›
×
You can save this tab as Personal to edit and correct it or add notes. All changes will be seen only by you. Learn more »
launch autoscroll
font size
0
reset
guitar tuner
backing track
0:00
0:00
edit
Autoscroll
slow
fast
+/-
esc
set tempo
stop
Author
[Song Intro]
G|--------------------------------|
D|----------------------------4-2-|
A|-2-2-2--2-2-224-5-5-5-4-4-4-----|
E|--------------------------------| 

G|--------2-2-------|-----------------|
D|------------2h4-2-|--------2-(Stop)-|
A|-0-0-0------------|-0-0-0-----------|
E|------------------|-----------------|

[Verse Intro]
G|--------------------------------|
D|----------------------------4-2-|
A|-2-2-2--2-2-224-5-5-5-4-4-4-----|
E|--------------------------------| 

[Verse] x5
G|--------2-2-------------------4h6---------------------------------|
D|------------2h4-2--------2-2-2----------------4h6-------------4-2-| 
A|-0-0-0------------0-0-0-----------2-2-2--2-2-2----5-5-5--4-4-4----|  
E|------------------------------------------------------------------| 

[Chorus]  x2
G|-----------------|---------------|----------------7h9-----------------|
D|---------2-4-6-4-|---------------|------------------------44------4---|
A|-5-4-2-0---------|-----4-2-0-----|-5-4-2-0-2\-7h9---------------------|
E|-----------------|-2~~-------4-2-|--------------------2-2----22-2---2-|

[Chorus Ending] x1
G|----------|
D|-----44---|
A|----------|
E|-2-2----2-|

[Verse] x4
G|--------2-2-------------------4h6---------------------------------|
D|------------2h4-2--------2-2-2----------------4h6-------------4-2-| 
A|-0-0-0------------0-0-0-----------2-2-2--2-2-2----5-5-5--4-4-4----|  
E|------------------------------------------------------------------| 

[Chorus]  x4
G|-----------------|---------------|----------------7h9-----------------|
D|---------2-4-6-4-|---------------|------------------------44------4---|
A|-5-4-2-0---------|-----4-2-0-----|-5-4-2-0-2\-7h9---------------------|
E|-----------------|-2~~-------4-2-|--------------------2-2----22-2---2-|

[Ending] x1
G|----------|
D|-----44---|
A|----------|
E|-2-2----2-|

************************************

| h  Hammer-on
| \  Slide down
| ~  Vibrato

************************************
Suggest correction
Creating personal tab
Creating personal tab
You can edit any tab online and save it as your Personal.

You can edit, replace or remove any tab part or add personal notes – all changes will be seen only by you.

Personal tabs can be accessed anytime from any device, even offline.
Learn more »
comments
print report bad tab
1 comment total.
0 reply
darbycrashed 264 Nov 05, 2015 12:59 PM, edited at 06:02 pm

Great tab with correct intro/verse, but not sure about the ending.

guest
You may want to rate the tab now too:
select rating
Wanna post a correction for this tab? Suggest correction