Oops, an error
Loading. Please wait.

This Night Has Opened My Eyes Tab

version 4
version 4

Whole song

Interactive

70 views 9 this week
no commentswrite comment
1 2 3 4 5
2 more votes to show rating
add to favorites
launch autoscroll
font size
0
reset
how to read this tab
guitar tuner
Autoscroll
slow
fast
+/-
esc
set tempo
stop
Help us to improve Ultimate-Guitar.com Take our survey!
×
Author
Difficulty
Capo
novice
2nd fret
About this tab version
This tab differs from version 3 by using a capo (2nd fret) and correcting some chords and notes. Was this info helpful? Yes No
The Smiths – This Night Has Opened My Eyes

Capo on 2nd fret so you can get all the open, single notes to ring out!

[Verse] x2
                                           slide down     slide down
         Bm      F#m11     Bm     F#m11   Gmaj7  Dmaj7    Gmaj7    A
F#|----------------5----------------5--|---8-------3---3----8------3--3-----| 
C#|------5---------3--------5-------3--|--10-------5---5---10------3--3-----| 
A |------5---------4--------5-------4--|---9-------4---4----9------4--4-----| 
E |------7------------------7----------|---------------------------5--5-----| 
B |------------------------------------|------------------------------------| 
F#|------------------------------------|------------------------------------|

        Bm      F#m11      Bm     F#m11   Gmaj7  Dmaj7    Gmaj7    A
F#|----------------5----------------5--|---8-------3---3----8------3--3-----| 
C#|------5---------3--------5-------3--|--10-------5---5---10------3--3-----| 
A |------5---------4--------5-------4--|---9-------4---4----9------4--4-----| 
E |------7------------------7----------|---------------------------5--5-----| 
B |------------------------------------|------------------------------------| 
F#|------------------------------------|------------------------------------|


     Em      Bm        Em      Bm                        A
F#|------------------------------------|--7----5---------3-------5--3-------|
C#|--6--6-----5---5----6--6----5---5---|--5----5----5----3---3---3--3-------|
A |--7--7-----5---5----7--7----5---5---|--5----5----5----4---4---------4----|
E |------------------------------------|-----------------5------------------|
B |------------------------------------|------------------------------------| 
F#|------------------------------------|------------------------------------|
 
[Chorus]
    slide down          slide down
    Gmaj7  Dmaj7       A      G          
F#|--8-------3-------------------------|-1--1---0--------1-----0------------|
C#|-10-------5---3------------1--0-----|-1--1------1--------1-----3----0----|
A |--9-------4------5--4--4---0----0--2|-2--2---------0-------------------0-|
E |--------------------5--5---3--------|------------------------------------|
B |------------------------------------|------------------------------------| 
F#|------------------------------------|------------------------------------|


    Gmaj7  Dmaj7       A      G          
F#|--8-------3-------------------------|-1--1---0-------1----0--------------|
C#|-10-------5---3------------1--0-----|-1--1------1-------1----3---0-------|
A |--9-------4------5--4--4---0----0--2|-2--2---------0----------------0---2|
E |--------------------5--5---3--------|------------------------------------|
B |------------------------------------|------------------------------------| 
F#|------------------------------------|------------------------------------|

    G                           D   A6
F#|-1--1--0--------1-----0------0---0--|------------------------------------|
C#|-1--1-----1--------1-----0---1---3--|------------------------------------|
A |-2--2--------0---------------0---0--|------------------------------------|
E |------------------------------------|------------------------------------|
B |------------------------------------|------------------------------------| 
F#|------------------------------------|------------------------------------|
 
[Verse] 
                                           slide down     slide down
         Bm      F#m11     Bm     F#m11   Gmaj7  Dmaj7    Gmaj7    A
F#|----------------5----------------5--|---8-------3---3----8------3--3-----| 
C#|------5---------3--------5-------3--|--10-------5---5---10------3--3-----| 
A |------5---------4--------5-------4--|---9-------4---4----9------4--4-----| 
E |------7------------------7----------|---------------------------5--5-----| 
B |------------------------------------|------------------------------------| 
F#|------------------------------------|------------------------------------|

        Bm      F#m11      Bm     F#m11   Gmaj7  Dmaj7    Gmaj7    A
F#|----------------5----------------5--|---8-------3---3----8------3--3-----| 
C#|------5---------3--------5-------3--|--10-------5---5---10------3--3-----| 
A |------5---------4--------5-------4--|---9-------4---4----9------4--4-----| 
E |------7------------------7----------|---------------------------5--5-----| 
B |------------------------------------|------------------------------------| 
F#|------------------------------------|------------------------------------|


     Em      Bm        Em      Bm                        A
F#|------------------------------------|--7----5---------3-------5--3-------|
C#|--6--6-----5---5----6--6----5---5---|--5----5----5----3---3---3--3-------|
A |--7--7-----5---5----7--7----5---5---|--5----5----5----4---4---------4----|
E |------------------------------------|-----------------5------------------|
B |------------------------------------|------------------------------------| 
F#|------------------------------------|------------------------------------|

[Chorus] x10
    slide down          slide down
    Gmaj7  Dmaj7       A      G          
F#|--8-------3-------------------------|-1--1---0--------1-----0------------|
C#|-10-------5---3------------1--0-----|-1--1------1--------1-----3----0----|
A |--9-------4------5--4--4---0----0--2|-2--2---------0-------------------0-|
E |--------------------5--5---3--------|------------------------------------|
B |------------------------------------|------------------------------------| 
F#|------------------------------------|------------------------------------|


    Gmaj7  Dmaj7       A      G          
F#|--8-------3-------------------------|-1--1---0-------1----0--------------|
C#|-10-------5---3------------1--0-----|-1--1------1-------1----3---0-------|
A |--9-------4------5--4--4---0----0--2|-2--2---------0----------------0---2|
E |--------------------5--5---3--------|------------------------------------|
B |------------------------------------|------------------------------------| 
F#|------------------------------------|------------------------------------|

    G                           D   A6
F#|-1--1--0--------1-----0------0---0--|------------------------------------|
C#|-1--1-----1--------1-----0---1---3--|------------------------------------|
A |-2--2--------0---------------0---0--|------------------------------------|
E |------------------------------------|------------------------------------|
B |------------------------------------|------------------------------------| 
F#|------------------------------------|------------------------------------| 
Suggest correction
Give kudos to tab author, rate the tab!
1 2 3 4 5
comments
print report bad tab
guest
You may want to rate the tab now too:
select rating
Wanna post a correction for this tab? Suggest correction