Oops, an error
Loading. Please wait.

Waterfall Bass Tab

13 views 1 this week
no commentswrite comment
1 2 3 4 5
3 more votes to show rating
add to favorites
launch autoscroll
font size
0
reset
guitar tuner
Autoscroll
slow
fast
+/-
esc
set tempo
stop
Help us to improve Ultimate-Guitar.com Take our survey!
×
Author
Difficulty
novice
Tabbed by: 6METAL6BASSIST6
E-mail: petergriffinav@gmail.com

Tuning: EADG

G|----------------------------------------------------------------|
D|4-----------4---4---------------4-----------4---4-------4-------|
A|----------------------------4-----------------------------------|
E|----------------------------------------------------------------|

G|--------------------------------4-----------4---4-------4-------|
D|----------------------------------------------------------------|
A|6-----------6---6-------6---------------------------------------|
E|----------------------------------------------------------------|

G|6---6-------6---4---------------|
D|--------------------------------|
A|--------------------------------|
E|--------------------------------|

0:11

G|----------------------------------------------------------------|
D|4-----------4---4---------------4-----------4---4-------4-------|
A|----------------------------4-----------------------------------|
E|----------------------------------------------------------------|

G|--------------------------------4-----------4---4-------4-----/-|
D|----------------------------------------------------------------|
A|6-----------6---6-------6---------------------------------------|
E|----------------------------------------------------------------|

G|6---6-------6---4---------------|
D|--------------------------------|
A|--------------------------------|
E|--------------------------------|

0:21

G|----------------------------------------------------------------|
D|4-----------4---4-------4-------4-----------4---4---------------|
A|------------------------------------------------------------4---|
E|----------------------------------------------------------------|

G|----------------------------------------------------------------|
D|4-----------4---4-------4-------4-------4-----------6-----------|
A|------------------------------------------------7-------7-------|
E|----------------------------------------------------------------|

G|--------------------------------4-----------4-/-7-----7-----7---|
D|----------------5-------5---------------------------------------|
A|6-----------6-------6-------6-----------------------------------|
E|----------------------------------------------------------------|

G|6---------------------------6---|
D|------6-----------------6-------|
A|------------4-------4-----------|
E|--------------------------------|

0:36

G|------------------------------------------------6---------------|.
D|4-----------4---4-------4-----/-8-----------8---------8---------|.
A|------------------------------------------------------------6---|.
E|----------------------------------------------------------------|.
                                                                   . x2
G|----------------4-------------------------------4---6---4-------|.
D|6-----------6-------6-----------------------6---------------6---|.
A|----------------------------6---4-------------------------------|.
E|----------------------------------------------------------------|.

0:52

G|----------------------------------------------------------------|
D|4-----------4---4---------------4-----------4---4-------4-------|
A|----------------------------4-----------------------------------|
E|----------------------------------------------------------------|

G|--------------------------------4-----------4---4-------4-------|
D|----------------------------------------------------------------|
A|6-----------6---6-------6---------------------------------------|
E|----------------------------------------------------------------|

G|6---6-------6---4---------------|
D|--------------------------------|
A|--------------------------------|
E|--------------------------------|

1:03

G|----------------------------------------------------------------|
D|4-----------4---4-------4-------4-----------4---4---------------|
A|----------------------------4-------------------------------4---|
E|----------------------------------------------------------------|

G|----------------------------------------------------------------|
D|4-----------4---4-------4-------4-------4-----------6-----------|
A|------------------------------------------------7-------7-------|
E|----------------------------------------------------------------|

G|--------------------------------4-----------4-/-7-----------7---|
D|----------------5-------5---------------------------------------|
A|6-----------6-------6-------6-----------------------------------|
E|----------------------------------------------------------------|

G|6-------------------------------|
D|------6-------------6-----------|
A|------------4-----------4-------|
E|--------------------------------|

1:17

G|------------------------------------------------6---------------|.
D|4-----------4---4-------4---6---8-----------8---------8---------|.
A|------------------------------------------------------------6---|.
E|----------------------------------------------------------------|.
                                                                   . x2
G|----------------4-------------------------------4---6---4-------|.
D|6-----------6-------6-----------------------6---------------6---|.
A|----------------------------6---4-------------------------------|.
E|----------------------------------------------------------------|.

1:34

G|----------------------------------------------------------------|
D|4-----------4---4---------------4-----------4---4-------4-------|
A|----------------------------4-----------------------------------|
E|----------------------------------------------------------------|

G|--------------------------------4-----------4---4-------4-------|
D|----------------------------------------------------------------|
A|6-----------6---6-------6---------------------------------------|
E|----------------------------------------------------------------|

G|6---6-------6---4---------------|
D|--------------------------------|
A|--------------------------------|
E|--------------------------------|

1:44

G|----------------------------------------------------------------|
D|4-----------4---4-------4-------4-----------4---4-------4-------|
A|----------------------------4-------------------------------4---|
E|----------------------------------------------------------------|

G|----------------------------------------------------------------|
D|4-----------4---4-------4-------4-------4-----------6-----------|
A|------------------------------------------------7-------7-------|
E|----------------------------------------------------------------|

G|--------------------------------4-----------4-/-7-----------7---|
D|----------------5-------5---------------------------------------|
A|6-----------6-------6-------6-----------------------------------|
E|----------------------------------------------------------------|

G|6---------------------------6---|
D|------6-----------------6-------|
A|------------4-------4-----------|
E|--------------------------------|

1:59

G|------------------------------------------------6---------------|.
D|4-----------4---4-------4---6---8-----------8---------8---------|.
A|------------------------------------------------------------6---|.
E|----------------------------------------------------------------|.
                                                                   . x2
G|----------------4-------------------------------4---6---4-------|.
D|6-----------6-------6-----------------------6---------------6---|.
A|----------------------------6---4-------------------------------|.
E|----------------------------------------------------------------|.

2:15

G|----------------------------------------------------------------|
D|4-----------4---4---------------4-----------4---4-------4-------|
A|----------------------------4-----------------------------------|
E|----------------------------------------------------------------|

G|--------------------------------4-----------4---4-------4-------|
D|----------------------------------------------------------------|
A|6-----------6---6-------6---------------------------------------|
E|----------------------------------------------------------------|

G|6---6-------6---4---------------|
D|--------------------------------|
A|--------------------------------|
E|--------------------------------|

2:25

G|----------------------------------------------------------------|
D|4-----------4---4---------------4-----------4---4-------4-------|
A|----------------------------4-----------------------------------|
E|----------------------------------------------------------------|

G|--------------------------------4-----------4---4-------4-------|
D|----------------------------------------------------------------|
A|6-----------6---6-------6---------------------------------------|
E|----------------------------------------------------------------|

G|6---6-------6---4-----------------------------------------------|
D|--------------------------------4-------------------------------|
A|----------------------------------------------------------------|
E|----------------------------------------------------------------|
Suggest correction
Give kudos to tab author, rate the tab!
1 2 3 4 5
comments
print report bad tab
guest
You may want to rate the tab now too:
select rating
Wanna post a correction for this tab? Suggest correction