Oops, an error
Loading. Please wait.

I Think Im Losing My Mind Chords

31 views 1 this week
1 commentread comment
1 2 3 4 5
2 more votes to show rating
add to favorites
launch autoscroll
font size
0
reset
transpose
0
reset
simplify chords
display chords
guitar tuner
Autoscroll
slow
fast
+/-
esc
set tempo
stop
Help us to improve Ultimate-Guitar.com Take our survey!
×
Author
Difficulty
novice
[Intro Riff]

e|-------------------------------|
B|-----------15-17---------------|
G|--------16----------16---------|
D|—17--17-------------------17---|
A|-------------------------------|
E|-------------------------------|(x4)

Play verse chords in this rhythm: 

e|-------------------------------|
B|-------------------------------|
G|-------------------------------|
D|-------------------------------|
A|-------------------------------|
E|---3--3-3-2-0--0-0-2-3--3-3----|
                                     

[Verse]

G5        F#5       Em        F#5        Em
I know there’s nothing really I could say


[Verse Riff 1]

e|---7--5--3--2------------|
B|---------------5-7-5-0---|
G|-------------------------|
D|-------------------------|
A|-------------------------|
E|-------------------------|

G5        F#5       Em        F#5        Em
The kids on the street are going to set you straight


[Verse Riff 2]

e|---7--5--3--2------------|
B|---------------5-7-5-0---|
G|-------------------------|
D|-------------------------|
A|-------------------------|
E|-------------------------|


[Chorus]

      A5                  D5
Oh, I think I’m losing my mind, oh my God
  A                   D  
I think I’m losing my mind, oh my God
  A                   D
I think I’m losing my mind, oh my God
  A                   D
I think I’m losing my mind
                   G
Well, I don’t even care


[Play Intro Riff]

G5        F#5       Em        F#5        Em
It’s the same old shit I’ve been saying for years


[Verse Riff 1]

G5        F#5       Em        F#5        Em
Don’t waste your breath, don’t waste your tears


[Verse Riff 2]

      A5                  D5
Oh, I think I’m losing my mind, oh my God
  A                   D  
I think I’m losing my mind, oh my God
  A                   D
I think I’m losing my mind, oh my God
  A                   D
I think I’m losing my mind
                   G
Well, I don’t even care


[Solo]

e|------------------------------------14-14-14---|
B|---7--7-7---10--10-10---12--12-12--------------|
G|-----------------------------------------------|
D|-----------------------------------------------|
A|-----------------------------------------------|
E|-----------------------------------------------|


[Bridge]

C
Come on, come on
                    D            
Won’t you give me a break?
               D C# C
Give me a break

C
Come on, come on
                    D
Won’t you give me a break?
          D
Give me a break
G5        F#5       Em        F#5        Em
I know there’s nothing really I could say


[Verse Riff 1]

G5        F#5       Em        F#5        Em
The kids on the street are going to set you straight


[Verse Riff 2]

         A5                  D5
Oh, I think I’m losing my mind, oh my God
  A                   D  
I think I’m losing my mind, oh my God
  A                   D
I think I’m losing my mind, oh my God
  A                   D
I think I’m losing my mind
                   G
Well, I don’t even care 

e|-------------------------------|
B|-----------15-17---------------|
G|--------16----------16---------|
D|—17--17-------------------17---|
A|-------------------------------|
E|-------------------------------|(x4)

End on G
Suggest correction
Give kudos to tab author, rate the tab!
1 2 3 4 5
comments
print report bad tab
1 comment total.
0 reply
AlexFluffyman 13,475 Sep 20, 2016 08:45 AM

Great! 5 stars!

guest
You may want to rate the tab now too:
select rating
Wanna post a correction for this tab? Suggest correction