Oops, an error
Loading. Please wait.

I Wanna Destroy You Bass Tab

70 views 12 this week
no commentswrite comment
1 2 3 4 5
2 more votes to show rating
add to favorites
launch autoscroll
font size
0
reset
guitar tuner
Autoscroll
slow
fast
+/-
esc
set tempo
stop
Help us to improve Ultimate-Guitar.com Take our survey!
×
Author
Difficulty
novice
[Intro]

G|-----------------|-----------------|-----------------|--------------|
D|-----------------|-----------------|-----------------|--------------|
A|-5-5-5-5-5-5-5-5-|-5-5-5-5-5-5-5-5-|-5-5-5-5-5-5-5-5-|-5------------|
E|-----------------|-----------------|-----------------|---2--3--4--5-|


[Chorus]

G|-----------------|-----------------|-----------------|-----------------| (x4)
D|-----------------|-----------------|-----------------|-----------------|
A|-5-5-5-5-5-5-5-5-|-----------------|-3-3-3-3-3-3-3-3-|-5-5-5-5-5-5-5-5-|
E|-----------------|-3-3-3-3-3-3-3-3-|-----------------|-----------------|


[Verse 1] (x2)

G|-----------------|-----------------|-----------------|-----------------| 
D|-----------------|-----------------|-----------------|-----------------|
A|-3-3-3-3-3-3-3-3-|-----------------|-3-3-3-3-3-3-3-3-|-----------------|
E|-----------------|-3-3-3-3-3-3-3-3-|-----------------|-3-3-3-3-3-3-3-3-|


G|-----------------|-----------------|-----------------|-----------------| 
D|-----------------|-----------------|-----------------|-----------------|
A|-3-3-3-3-3-3-3-3-|-----------------|-3-3-3-3-3-3-3-3-|-5-5-5-5-5-5-5-5-|
E|-----------------|-3-3-3-3-3-3-3-3-|-----------------|-----------------|


[Chorus]

G|-----------------|-----------------|-----------------|-----------------| (x2)
D|-----------------|-----------------|-----------------|-----------------|
A|-5-5-5-5-5-5-5-5-|-----------------|-3-3-3-3-3-3-3-3-|-5-5-5-5-5-5-5-5-|
E|-----------------|-3-3-3-3-3-3-3-3-|-----------------|-----------------|


[Verse 2]

G|-----------------|-----------------|-----------------|-----------------| 
D|-----------------|-----------------|-----------------|-----------------|
A|-3-3-3-3-3-3-3-3-|-----------------|-3-3-3-3-3-3-3-3-|-----------------|
E|-----------------|-3-3-3-3-3-3-3-3-|-----------------|-3-3-3-3-3-3-3-3-|


G|-----------------|-----------------|-----------------|-----------------| 
D|-----------------|-----------------|-----------------|-----------------|
A|-3-3-3-3-3-3-3-3-|-----------------|-3-3-3-3-3-3-3-3-|-5-5-5-5-5-5-5-5-|
E|-----------------|-3-3-3-3-3-3-3-3-|-----------------|-----------------|


[Chorus]

G|-----------------|-----------------|-----------------|-----------------|
D|-----------------|-----------------|-----------------|-----------------|
A|-5-5-5-5-5-5-5-5-|-----------------|-3-3-3-3-3-3-3-3-|-5-5-5-5-5-5-5-5-|
E|-----------------|-3-3-3-3-3-3-3-3-|-----------------|-----------------|


[Bridge]

G|-------12-12-------12-12-|-------12-12-------12-12-|-------12-12-------12-12-|-------12-12-------12-12-|
D|-------------------------|-------------------------|-------------------------|-------------------------|
A|-10-10-------10-10-------|-10-10-------10-10-------|-10-10-------10-10-------|-10-10-------10-10-------|
E|-------------------------|-------------------------|-------------------------|-------------------------|


G|-------12-12-------12-12-|-------12-12-------12-12-|-------12-12-------------|---------7-------|
D|-------------------------|-------------------------|-------------------------|-------7---7-4-7-|
A|-10-10-------10-10-------|-10-10-------10-10-------|-10-10-------10-10-10\-5-|-5-5-5-----------|
E|-------------------------|-------------------------|-------------------------|-----------------|


[Chorus]

G|-----------------|-----------------|-----------------|-----------------| (x2)
D|-----------------|-----------------|-----------------|-----------------|
A|-5-5-5-5-5-5-5-5-|-----------------|-3-3-3-3-3-3-3-3-|-5-5-5-5-5-5-5-5-|
E|-----------------|-3-3-3-3-3-3-3-3-|-----------------|-----------------|


[Outro]

G|-----------------|-----------------|-----------------|-----------------|
D|-----------------|-4-4-4-4-4-4-4-4-|-5-5-5-5-5-5-5-5-|-7-7-7-7-7-7-7-7-|
A|-7-7-7-7-7-7-7-7-|-----------------|-----------------|-----------------|
E|-----------------|-----------------|-----------------|-----------------|


G|-5-5-5-5-5-5-5-5-|-----------------|-----------------|
D|-----------------|-----------------|-----------------|
A|-----------------|-5-5-5-5-5-5-5-5-|-5-5-5-5-5-5-5-5-|
E|-----------------|-----------------|-----------------|

 (slowly.................................................)
G|-----------------|-----------------|-------------------|-----------------|
D|-----------------|-----------------|-------------------|-----------------|
A|-5-4-3-2---------|-5-4-3-2---------|-5-4-3-2---------5-|-----------------|
E|---------5-4-3-2-|---------5-4-3-2-|---------5-4-3-2---|--3--------------|



***************************

| \ : slide down

***************************

in regular sequence!
Suggest correction
Give kudos to tab author, rate the tab!
1 2 3 4 5
comments
print report bad tab
guest
You may want to rate the tab now too:
select rating
Wanna post a correction for this tab? Suggest correction