Oops, an error
Loading. Please wait.

Man Of Constant Sorrow Tab

version 1
version 1

Acoustic

Whole song

Interactive

49,170 views 39 this week
10 commentsread comments
1 2 3 4 5
x 16
add to favorites
launch autoscroll
font size
0
reset
how to read this tab
guitar tuner
×
Best way to learn
"Man Of Constant Sorrow"
Autoscroll
slow
fast
+/-
esc
set tempo
stop
[Chords]
     Fm                     F#                  C#5
e|---x-|               e|---x-|             e|---x--|
B|---x-|               B|---x-|             B|---x--|
G|---x-|               G|---x-|             G|---x--|
D|---x-|               D|---x-|             D|---x--|
A|---4-|               A|---7-|             A|---11-|
E|---2-|               E|---5-|             E|---9--|

[Intro]
[Riff 1]
e|--------------------|
B|--------------------|
G|--------------------|
D|--------------------|
A|--------------------|
E|-7b----5b-----------|

                                    Fm   
in constant sorrow all through his day

Fm   
[Riff 1] (x3)
e|--------------------|
B|--------------------|
G|--------------------|
D|--------------------|
A|--------------------|
E|-7b----5b-----------|

[Verse 1]
Fm                        F#
i am a man of constant sorrow

[Riff 1]
e|--------------------|
B|--------------------|
G|--------------------|
D|--------------------|
A|--------------------|
E|-7b----5b-----------|

               C#5             Fm
and i've seen trouble all my days
Fm                         F#
i bid farewell to old kentucky
              C#5               Fm
its the place where i was raised

[Riff 1]
e|--------------------|
B|--------------------|
G|--------------------|
D|--------------------|
A|--------------------|
E|-7b----5b-----------|


Fm              C#5            Fm
its the place where i was raised


************************************

| x  Dead note
| b  Bend

************************************
Suggest correction
comments
print report bad tab
10 comments total. Showing first comments.
+1 reply
TiMaRmStRoNg101 30 Nov 03, 2003 07:00 PM

.......alright

+1 reply
andrewb610 10 Mar 02, 2006 12:12 PM

your Fm should be a F# and your F# should be an A and your Gsus? should be a D# all these are power chords so the chords are F#no3rd, Ano3rd and D#no3rd

+1 reply
sberube1979 122 Apr 09, 2006 10:34 AM

How on Earth did this get posted?????

guest
You may want to rate the tab now too:
select rating
Wanna post a correction for this tab? Suggest correction