Oops, an error
Loading. Please wait.
We have Chord Pro version of Man Of Constant Sorrow.
It's the closest thing you can get to the original song and it has interactive parts. Check out the tab »
×
7,086 views 3 this week
no commentswrite comment
1 2 3 4 5
3 more votes to show rating
add to favorites
×
Save as Personal and add changes to this tab that will be seen only by you. Learn more ›
×
You can save this tab as Personal to edit and correct it or add notes. All changes will be seen only by you. Learn more »
launch autoscroll
font size
0
reset
guitar tuner
edit
Autoscroll
slow
fast
+/-
esc
set tempo
stop
Author
Difficulty
Unregistered
Man Of Constant Sorrow
The Soggy Bottom Boys

This song is in Fm, and theres no bass in the song, so I'll leave it to you to get 
with the rythm and the notes you use.
Heres the bare bones of it:

Verse
G|---------------------------------------------------------------------------|
D|---------------------------------------------------------------------------|
A|---------------------------------------------------------------------------|
E|-1~-------6-4-1~-------1-4-6~--6---8~-------8-6-4-1~-----------------------|

Chorus
G|---------------------------------------------------------------------------|
D|----------------1----------------------------------------------------------|
A|-----1-3~---------3-1------------------------------------------------------|
E|-1-4------------------1----------------------------------------------------|

            
            
Suggest correction
Creating personal tab
Creating personal tab
You can edit any tab online and save it as your Personal.

You can edit, replace or remove any tab part or add personal notes – all changes will be seen only by you.

Personal tabs can be accessed anytime from any device, even offline.
Learn more »
Give kudos to tab author, rate the tab!
1 2 3 4 5
comments
print report bad tab
guest
Wanna post a correction for this tab? Suggest correction