Oops, an error
Loading. Please wait.

Do You Love Me Bass Tab

31 views 3 this week
no commentswrite comment
1 2 3 4 5
3 more votes to show rating
add to favorites
launch autoscroll
font size
0
reset
guitar tuner
Autoscroll
slow
fast
+/-
esc
set tempo
stop
Help us to improve Ultimate-Guitar.com Take our survey!
×
Intro
G-----------------|-----------------|
D-----------------|-----------------|
A-[DRUM FILL]-----|---9-9-9-9-9-9-9-|
E-----------------|-----------------|

Verse                                                           ("Now That I Can Dance...")
G--------------------|--------------------|--------------------|--------------------------------------------|
D--------------------|--------------------|--------------------|--------------------------------------------|
A----6-9--7-7--9-9-9-|----6-9--7-7--9-9-9-|----6-9--7-7--9-9-9-|-7-7-7-7-7-7-7-7--9-9-9-9-9-9-9-9-9-9-9-9-9-|
E-7------------------|-7------------------|-7------------------|--------------------------------------------|

                                                                ("Work!")
G--------------------|--------------------|--------------------|-------------------------|
D--------------------|--------------------|--------------------|-------------------------|
A----6-9--7-7--9-9-9-|----6-9--7-7--9-9-9-|----6-9--7-7--9-9-9-|-----------9-9-9-9-9-9-9-|
E-7------------------|-7------------------|-7------------------|-7-----------------------|

                                                                ("Tell Me...")
G--------------------|--------------------|--------------------|---------------------------------------------|
D--------------------|--------------------|--------------------|---------------------------------------------|
A----6-9--7-7--9-9-9-|----6-9--7-7--9-9-9-|----6-9--7-7--9-9-9-|-9-9-9-9-9-9-9-9-9-9-9-9-9-9-9-9-9-9-9-9-9-9-|
E-7------------------|-7------------------|-7------------------|---------------------------------------------|


Verse                                                           ("Now That I Can Dance...")
G--------------------|--------------------|--------------------|--------------------------------------------|
D--------------------|--------------------|--------------------|--------------------------------------------|
A----6-9--7-7--9-9-9-|----6-9--7-7--9-9-9-|----6-9--7-7--9-9-9-|-7-7-7-7-7-7-7-7--9-9-9-9-9-9-9-9-9-9-9-9-9-|
E-7------------------|-7------------------|-7------------------|--------------------------------------------|

                                                                ("Work!")
G--------------------|--------------------|--------------------|-------------------------|
D--------------------|--------------------|--------------------|-------------------------|
A----6-9--7-7--9-9-9-|----6-9--7-7--9-9-9-|----6-9--7-7--9-9-9-|-----------9-9-9-9-9-9-9-|
E-7------------------|-7------------------|-7------------------|-7-----------------------|

                                                                ("Tell Me...")
G--------------------|--------------------|--------------------|---------------------------------------------|
D--------------------|--------------------|--------------------|---------------------------------------------|
A----6-9--7-7--9-9-9-|----6-9--7-7--9-9-9-|----6-9--7-7--9-9-9-|-9-9-9-9-9-9-9-9-9-9-9-9-9-9-9-9-9-9-9-9-9-9-|
E-7------------------|-7------------------|-7------------------|---------------------------------------------|


                                                                ("Now That I Can Dance...")
G--------------------|--------------------|--------------------|--------------------------------------------|
D--------------------|--------------------|--------------------|--------------------------------------------|
A----6-9--7-7--9-9-9-|----6-9--7-7--9-9-9-|----6-9--7-7--9-9-9-|-7-7-7-7-7-7-7-7--9-9-9-9-9-9-9-9-9-9-9-9-9-|
E-7------------------|-7------------------|-7------------------|--------------------------------------------|

Outro                                                                                
G--------------------|--------------------|--------------------|--------------------|
D--------------------|--------------------|--------------------|--------------------|
A----6-9--7-7--9-9-9-|----6-9--7-7--9-9-9-|----6-9--7-7--9-9-9-|----6-9--7-7--9-9-9-|
E-7------------------|-7------------------|-7------------------|-7------------------|

                        ***Fades Out***
G--------------------|--------------------|
D--------------------|--------------------|
A----6-9--7-7--9-9-9-|----6-9--7-7--9-9-9-|
E-7------------------|-7------------------|
Suggest correction
Give kudos to tab author, rate the tab!
1 2 3 4 5
comments
print report bad tab
guest
You may want to rate the tab now too:
select rating
Wanna post a correction for this tab? Suggest correction